Oops, an error
Loading. Please wait.

Sun And The Moon Tab

version 2
version 2

Whole song

by Mae
836 views 1 this week
no commentswrite comment
1 2 3 4 5
please rate
add to favorites
launch autoscroll
font size
0
reset
how to read this tab
guitar tuner
Autoscroll
slow
fast
+/-
esc
set tempo
stop
Help us to improve Ultimate-Guitar.com Take our survey!
×
Author
Difficulty
intermediate
-------------------------------------------------------------------------------
                             THE SUN AND THE MOON - Mae
-------------------------------------------------------------------------------
Tabbed by: RLaunch 
Email: launch_rocket@yahoo.com

Tuning: Standard

Although most of this song is on piano I decided to tab out the whole thing. 


If you have any suggestions or comments please contact me and let me know. 

ENJOY! (and please rate) :)





  VERSE 1 


 Keyboard
e|--------------------(6)~-------------------------------------------|
B|--4~----4~----6~------------4~----4~----6~-------------------------|
G|----------------------------------------------(3)~-----------------|
D|-------------------------------------------------------------------|
A|-------------------------------------------------------------------|
E|-------------------------------------------------------------------|


e|--------------------(6)~-------------------------------------------|
B|--4~----4~----6~------------4~----4~----6~-------------------------|
G|----------------------------------------------(3)~-----------------|
D|-------------------------------------------------------------------|
A|-------------------------------------------------------------------|
E|-------------------------------------------------------------------|


e|--------------------(6)~-------------------------------------------|
B|--4~----4~----6~------------4-6-4-3-4-4~----4~----6~---------------|
G|--------------------------------------------------------(3)~-------|
D|-------------------------------------------------------------------|
A|-------------------------------------------------------------------|
E|-------------------------------------------------------------------|
 Wasted time. I cannot say that I was ready for this.

e|--------------------(6)~-------------------------------------------|
B|--4~----4~----6~------------4~----6~----8~----6~-------------------|
G|-------------------------------------------------------------------|
D|-------------------------------------------------------------------|
A|-------------------------------------------------------------------|
E|-------------------------------------------------------------------|
 But when worlds collide. And all that I have is all that I want.

e|----------------------------------------------3~-------------------|
B|--4~----6~----8~----8~----3-4-4~----6~----4-3-------3-4~-3-4-3-4~--|
G|-------------------------------------------------------------------|
D|-------------------------------------------------------------------|
A|-------------------------------------------------------------------|
E|-------------------------------------------------------------------|
 The words seem to float, and the thoughts they keep running. And all that I have is yours.

e|-------------------------------------------------------------------|
B|--4~----6~----4-3-4~-----------------------------------------------|
G|-------------------------------------------------------------------|
D|-------------------------------------------------------------------|
A|-------------------------------------------------------------------|
E|-------------------------------------------------------------------|
 All that I am is yours. Ohh..


CHORUS




e|-3~-4~-6~-6~-6~--3~-4~-6~-6~-6~--3~-4~-6~-6~-6~--4~-3~-1~-1~-1~----|
B|-------------------------------------------------------------------|
G|-------------------------------------------------------------------|
D|-------------------------------------------------------------------|
A|-------------------------------------------------------------------|
E|-------------------------------------------------------------------|
 

e|-3~-4~-6~-6~-6~--3~-4~-6~-6~-6~--3~-4~-6~-6~-6~--4~-3~-1~-1~-1~----|
B|----------------------------------------------------------------4~-|
G|-------------------------------------------------------------------|
D|-------------------------------------------------------------------|
A|-------------------------------------------------------------------|
E|-------------------------------------------------------------------|



VERSE 2




e|--------------------(6)~-------------------------------------------|
B|--4~----4~----6~------------4-6-4-3-4-4~----4~----6~---------------|
G|--------------------------------------------------------(3)~-------|
D|-------------------------------------------------------------------|
A|-------------------------------------------------------------------|
E|-------------------------------------------------------------------|
 Painted skies. I've seen so many that cannot compare. To

e|--------------------(6)~-------------------------------------------|
B|--4~----4~----6~------------4~----6~----8~----6~-------------------|
G|-------------------------------------------------------------------|
D|-------------------------------------------------------------------|
A|-------------------------------------------------------------------|
E|-------------------------------------------------------------------|
 Your ocean eyes. The pictures you took that covered your room.

e|----------------------------------------------3~-------------------|
B|--4~----6~----8~----8~----3-4-4~----6~----4-3-------3-4~-3-4-3-4~--|
G|-------------------------------------------------------------------|
D|-------------------------------------------------------------------|
A|-------------------------------------------------------------------|
E|-------------------------------------------------------------------|
 And it was just like the sun, but more like the moon. A light that can reach it all.

e|-------------------------------------------------------------------|
B|--4~----6~----4-3-4~-----------------------------------------------|
G|-------------------------------------------------------------------|
D|-------------------------------------------------------------------|
A|-------------------------------------------------------------------|
E|-------------------------------------------------------------------|
 So now I'm branded for taking the fall.




CHORUS




e|-3~-4~-6~-6~-6~--3~-4~-6~-6~-6~--3~-4~-6~-6~-6~--4~-3~-1~-1~-1~----|
B|-------------------------------------------------------------------|
G|-------------------------------------------------------------------|
D|-------------------------------------------------------------------|
A|-------------------------------------------------------------------|
E|-------------------------------------------------------------------|


e|-3~-4~-6~-6~-6~--3~-4~-6~-6~-6~--3~-4~-6~-6~-6~--4~-3~-1~-1~-1~----|
B|----------------------------------------------------------------4~-|
G|-------------------------------------------------------------------|
D|-------------------------------------------------------------------|
A|-------------------------------------------------------------------|
E|-------------------------------------------------------------------|




INTERLUDE




e|-------------------------------------------------------------------|
B|--3-4~------3-4~------6-3~-----------------------------------------|
G|-------0-3~------0-3~------0-5~-3-5~----------0h1------------------|
D|-------------------------------------1-1~-1h3----------------------|
A|-------------------------------------------------------------------|
E|-------------------------------------------------------------------|


e|-------------------------------------------------------------------|
B|--4-3~------4-3~-----6-3~------------------------------------------|
G|-------0-3~------0-3~------0-5~-3-5~----------0h1------------------|
D|-------------------------------------1-1~-1h3----------------------|
A|-------------------------------------------------------------------|
E|-------------------------------------------------------------------|


e|-------------------------------------------------------------------|
B|----------------------------------3---3---4---4---6---6---6-6-6-6--|
G|--1---1---1---1---3-0-3-0-3-0-5-0---3---3---5---5---7---7----------|
D|----3---3---3---3--------------------------------------------------|
A|-------------------------------------------------------------------|
E|-------------------------------------------------------------------|
 So when you say forever, can't you see? You've already captured me.

e|-------------------------------------------------------------------|
B|-15-16~--------15-16~--------18-15~--------------------------------|
G|--------12-15~--------12-15~--------12-17~-15-17~-------------12h13|
D|--------------------------------------------------13-13~-13h15-----|
A|-------------------------------------------------------------------|
E|-------------------------------------------------------------------|


e|-------------------------------------------------------------------|
B|-16-15~--------16-15~--------18-15~--------------------------------|
G|--------12-15~--------12-15~--------12-17~-15-17~-------------12h13|
D|--------------------------------------------------13-13~-13h15-----|
A|-------------------------------------------------------------------|
E|-------------------------------------------------------------------|



OUTRO



PART ONE:

PLAY 4 TIMES THROUGH
START: 4:29
STOP: 5:22

  Guitars 1 & 3
e|-------------------------------------------------------------------|
B|-------------------------------------------------------------------|
G|--88888888--10\7777777/5--5\1212121212121212-88888888--------------|
D|--xxxxxxxx--x--xxxxxxx-x--x-x-x-x-x-x-x-x-x--xxxxxxxx--------------|
A|--66666666--8\-5555555/3--3\1010101010101010-66666666--------------|
E|-------------------------------------------------------------------|

  Guitar 2                [THESE ARE 11'S NOT 1'S]
e|-------------------------------------------------------------------|
B|--9-8~---------8-6~-----------1111111111111-11-----11--------------|
G|----------------------------------------------8-10---8-10----------|
D|--------------------------------------------------8------8---------|
A|-------------------------------------------------------------------|
E|-------------------------------------------------------------------|



PART TWO:

PLAY 4 TIMES THROUGH
START: 5:23
STOP 6:15

I'm still trying to figure out what Zack (guitar 2) does in this part. 
Any ideas/comments/whatever, please contact me!

  Guitars 1 & 3 (FIRST TWO TIMES!)
e|-------------------------------------------------------------------|
B|-------------------------------------------------------------------|
G|--88888888--10\7777777/5--5\1212121212121212-11111111\-13-13/10-10-|
D|--xxxxxxxx--x--xxxxxxx-x--x-x-x-x-x-x-x-x-x--x-x-x-x---x--x--x--x--|
A|--66666666--8\-5555555/3--3\1010101010101010-9-9-9-9\--11-11/8--8--|
E|-------------------------------------------------------------------|

  Guitars 1 & 3 (THIRD TIME!)
e|-------------------------------------------------------------------|
B|-------------------------------------------------------------------|
G|--88888888--10\7777777/5--5\1212121212121212-16161616\18181818-----|
D|--xxxxxxxx--x--xxxxxxx-x--x-x-x-x-x-x-x-x-x--x-x-x-x--x-x-x-x------|
A|--66666666--8\-5555555/3--3\1010101010101010-14141414\16161616-----|
E|-------------------------------------------------------------------|
  
  Guitars 1 & 3 (FOURTH TIME!)
e|-------------------------------------------------------------------|
B|-------------------------------------------------------------------|
G|--88888888--10\7777777/5--5\1212121212121212-16161616\1818/1313----|
D|--xxxxxxxx--x--xxxxxxx-x--x-x-x-x-x-x-x-x-x--x-x-x-x--x-x--x-x-----|
A|--66666666--8\-5555555/3--3\1010101010101010-14141414\1616/1111----|
E|-------------------------------------------------------------------|



PART THREE: 

PLAY 3 TIMES THROUGH
START: 6:16
STOP: 6:56

  Guitar 1
e|-------------------------------------------------------------------|
B|-------------------------------------------------------------------|
G|--88888888--10\7777777/5--5\1212121212121212-11111111\13131313-----|
D|--xxxxxxxx--x--xxxxxxx-x--x-x-x-x-x-x-x-x-x--x-x-x-x--x-x-x-x------|
A|--66666666--8\-5555555/3--3\1010101010101010-9-9-9-9\-11111111-----|
E|-------------------------------------------------------------------|
  
This part looks confusing, I know xD Just take it piece by piece. 
I labeled it with timings for the first measure. The 6s in the times 
line up with the first note. Like 6:19 starts with the F note.

    Guitar 2  
    6:16          6:19              6:22           6:26
e|-------------------------------------------------------------------|
B|-------------------------------------------------------------------|
G|--888/1010/1212-1010\77/1010\88\5-5/88/1010/1212-1111\88\1313\1010-|
D|--xxx-x-x--x-x--x-x--xx-x-x--xx-x-x-xx-x-x--x-x--x-x--xx-x-x--x-x--|
A|--666/8-8-/1010-8-8-\55/8-8\-66\3-3/66/8-8-/1010-9-9\-66/1111\8-8--|
E|-------------------------------------------------------------------|

  Guitar 3
e|-------------------------------------------------------------------|
B|----------------------------------1111111111111111~------9999~-----|
G|----------------------------------x-x-x-x-x-x-x-x--------xxxx------|
D|----------------------------------8-8-8-8-8-8-8-8~-------6666~-----|
A|-------------------------------------------------------------------|
E|-------------------------------------------------------------------|



ENDING NOTES



  Guitar 1      Guitar 2      Guitar 3    
e|------------|-------------|------------|---------------------------|
B|------------|-------------|--8~--------|---------------------------|
G|--8~--------|--12~--------|--x---------|---------------------------|
D|--x---------|--x----------|--5~--------|---------------------------|
A|--6~--------|--10~--------|------------|---------------------------|
E|------------|-------------|------------|---------------------------|


I'm not sure yet what the keyboard plays in the outro part 3. 
If you have any comments/suggestions/whatever, please let me know! :) 
And rate it! :)

| /  slide up
| \  slide down
| h  hammer-on
| p  pull-off
| ~  vibrato
| +  harmonic
| x  Mute note
=====================================================================
Suggest correction
What's this?
You can suggest a correction to this tab. Community and Mods will review your correction and vote to approve or reject it.
comments
We did not receive enough feedback on this tab! Please rate:
print report bad tab
1 2 3 4 5
guest
You may want to rate the tab now too:
select rating
Please do not post tabs as comments. Select "correction" instead!