Oops, an error
Loading. Please wait.

Sun Tab

version 1
version 1

Solo

by Mae
969 views 1 this week
3 commentsread comments
1 2 3 4 5
x 4
add to favorites
launch autoscroll
font size
0
reset
how to read this tab
guitar tuner
Autoscroll
slow
fast
+/-
esc
set tempo
stop
Help us to improve Ultimate-Guitar.com Take our survey!
×
-------------------------------------------------------------------------------
                             Sun (Solo) - Mae
-------------------------------------------------------------------------------
Tabbed by: Scott Karoly
Email: theroseparade@gmail.com

Tuning: Standard

(3:02)
e|------------------------------------------|
B|------------------------------------------|
G|-----2-1----------------------------------|
D|---4-----2---4-2-0------------------------|(x4)
A|-----------0-------4h5p4------------------|
E|-2----------------------------------------|


| /  slide up
| \  slide down
| h  hammer-on
| p  pull-off
| ~  vibrato
| +  harmonic
| x  Mute note
===============================================================================
Suggest correction
comments
print report bad tab
3 comments total.
0 reply
drmmrboi 30 Apr 25, 2006 09:11 PM

sounds good.
but i think ur missin a little slide somwhere

+1 reply
rokrdude 100 May 21, 2007 03:57 PM

its actually a bend where they have h on and pull of and the 2-0 b4 the h andp needs to b pulle off

0 reply
luther527 88 Sep 18, 2007 02:51 PM

(3:02)
e|------------------------------------------|
B|------------------------------------------|
G|-----2-1----------------------------------|
D|---4-----2---4-2-0------------------------|(x4)
A|--5--------0-------4h5p4------------------|
E|------------------------------------------|

guest
You may want to rate the tab now too:
select rating
Wanna post a correction for this tab? Suggest correction