Oops, an error
Loading. Please wait.

Suspension Bass Tab

version 1
version 1

Whole song

Interactive

by Mae
2,217 views 1 this week
no commentswrite comment
1 2 3 4 5
please rate
add to favorites
launch autoscroll
font size
0
reset
guitar tuner
Tab Pro tools
  • play this tab
  • loop segment
  • change instrument
  • show fretboard
  • metronome
Autoscroll
slow
fast
+/-
esc
set tempo
stop
Contributor
Mae
Suspension
2004
Submitted by: paramore_fans@yahoo.com

Key: Eb

Tuning: Standard EADG


Intro: After the piano
G|-----------------|----------------|
D|-----------------|----------------|
A|-6-6-6-6-6-6-6-6-|6-6-6-6-1-1-1-1-|
E|-----------------|----------------|
         x3


G|-----------------|-----------------|
D|-----------------|-----------------|
A|-3-3-3-3-3-3-3-3-|-1-1-1-1-1-1-1-1-|
E|-----------------|-----------------|
         x2                x2


G|---------|
D|---------|
A|-6(hold)-
E|---------


Verse 1:
Lately I'm alright...
G|----------------|---------------------------------------|
D|----------------|---------------------------------------|
A|-6-6-6--6-6-6-6-|-1-1-1--3-3-3--3-3-3-3--1-1-1--1-1-1-1-|
E|----------------|---------------------------------------|
         x2

I don't need to know right now
G|-------------------------------------|
D|-------------------------------------|
A|------------------------3-3-3--1-1-1-| x2
E|-4-4-4--4-4-4-4--4-4-4---------------|


Chorus 1:
Say anything say what you...
G|---------------|--------------------------------|
D|---------------|--------------------------------|
A|-6-6-6-6-6-6-6-|------------------------1-1-1-1-|
E|---------------|4-4-4-4-4-4-4-4-4-4-4-4---------|
       x2

...mean, cause i'm caught in suspension
G|---------------------------------|
D|---------------------------------|
A|-3-3-3-3-3-3-3-3-1-1-1-1-1-1-1-1-|
E|---------------------------------|


Post Chorus:
G|-------------------------|
D|-------------------------|
A|------1-1--3--5--5--6--6-|
E|-4-4---------------------|


Verse 2: Now I'm wanting this for sure
G|---------------------------------------|
D|---------------------------------------|
A|-6-6-6--6-6-6-6--10-10-10--10-10-10-10-|
E|---------------------------------------|


...more, I'll plan all day and drive all night
G|--------------------------------|
D|--------------------------------|
A|-3-3-3--3-3-3-3--1-1-1--1-1-1-1-|
E|--------------------------------|


Can't seem to stop this now
G|-------------------------------------|
D|-------------------------------------|
A|------------------------3-3-3--1-1-1-| x2
E|-4-4-4--4-4-4-4--4-4-4---------------|


Chorus 2:
Say anything say what you...
G|---------------|--------------------------------|
D|---------------|--------------------------------|
A|-6-6-6-6-6-6-6-|------------------------1-1-1-1-|
E|---------------|4-4-4-4-4-4-4-4-4-4-4-4---------|
       x2


mean, When you whisper you want this
G|---------------------------------|
D|---------------------------------|
A|-3-3-3-3-3-3-3-3-1-1-1-1-1-1-1-1-|
E|---------------------------------|


Here I stand the same
G|-------------------------------|
D|-------------------------------|
A|------------------1-1-1------1-|
E|-4-4-4-4-4-4-4-4---------1-1---|


Pick enough speed I can barely...
G|---------------|--------------------------------|
D|---------------|--------------------------------|
A|-6-6-6-6-6-6-6-|------------------------1-1-1-1-|
E|---------------|4-4-4-4-4-4-4-4-4-4-4-4---------|
       x2

...breathe, cause i'm caught in suspension
G|---------------------------------|
D|---------------------------------|
A|-3-3-3-3-3-3-3-3-1-1-1-1-1-1-1-1-|
E|---------------------------------|


(Repeat Post Chorus 2 twice)


Bridge:

It's enough for me to get excited
G|-----------------|
D|-----------------|
A|-1-1-1-1-1-1-1-1-| x2
E|-----------------|


It's enough for me To feel well
G|-----------------|
D|-----------------|
A|-----------------| x2
E|-4-4-4-4-4-4-4-4-|


whoa
G|---------------------------------|-----------------|
D|---------------------------------|-----------------|
A|-3-3-3-3-3-3-3-3-1-1-1-1-1-1-1-1-|-----------------|
E|---------------------------------|-4-4-4-4-4-4-4-4-|
                                            x2

Interlude:
G|-----------------|----------------|
D|-----------------|----------------|
A|-6-6-6-6-6-6-6-6-|6-6-6-6-1-1-1-1-|
E|-----------------|----------------|
         x3


G|-----------------|-----------------|
D|-----------------|-----------------|
A|-3-3-3-3-3-3-3-3-|-1-1-1-1-1-1-1-1-|
E|-----------------|-----------------|
         x2                x2


G|-----------------|-----------------|
D|-----------------|-----------------|
A|-----------------|---------1-1-1-1-|
E|-4-4-4-4-4-4-4-4-|-4-4-4-4---------|
         x3


G|-----------------|-----------------|-------------|
D|-----------------|-----------------|-------------|
A|-3-3-3-3-3-3-3-3-|-1-1-1-1-1-1-1-1-|-1-1--1-1--1-|
E|-----------------|-----------------|-------------|
         x2


Chorus 3: Silince

Say anything say what you...
G|-8---11-|
D|--------|
A|--------|
E|--------|


...mean, when you whispher you want this
G|--------|
D|-10---8-|
A|--------|
E|--------|


your eyes tell the same
G|------------------|
D|-6----------------|
A|-----1-1-1--1-1-1-|
E|------------------|


(Repeat Chorus 1 and last 4 parts of chorus 2)
(Repeat Chorus 1)


Outro: Repeat Post Chorus twice


End on:
G|----------|
D|----------|
A|-11(hold)-
E|----------
comments
We did not receive enough feedback on this tab! Please rate:
print report bad tab
1 2 3 4 5
I want to post or [tab]
guest
You may want to rate the tab now too:
select rating
Please do not post tabs as comments. Select "correction" instead!