Oops, an error
Loading. Please wait.

Suspension Chords

version 3
version 3

Whole song

Interactive

by Mae
3,989 views 3 this week
no commentswrite comment
1 2 3 4 5
please rate
add to favorites
launch autoscroll
font size
0
reset
transpose
0
reset
display chords
guitar tuner
Autoscroll
slow
fast
+/-
esc
set tempo
stop
Help us to improve Ultimate-Guitar.com Take our survey!
×
Author
If there are any corrections, please private message me. The only part that I'm 
unsure about is the post-chorus. I know that Mae plays this song in Eb, but this 
is for all those who don't want to tune their guitar down.

"Suspension" by Mae
Tab by: GhostBrother

(Intro)
  Eb                                        A# Cm    A#    Eb
e|---------------------------------------|
B|----------11-------8----------9-8------|
G|---8-10-8-----8-10-----8-10-8-----10-8-| 
D|-8-------------------------------------|   x4
A|---------------------------------------|
E|---------------------------------------|


(Verse 1)
Eb
Lately I'm alright, and lately I'm not scared
       A#    Cm
I've figured out
                    A#
That what you do to me feels like
                G#
I'm floating on air, I don't need to know right now
           Cm     A#    G#         
All I know is I believe,    In the very thing that got us here
          Cm     A#    Cm    D
And now I can't leave


(Chorus 1)
Eb     G#             A#      Cm
Say anything, but say what you mean
           A#                 
'cause I'm caught in suspension


(Post-chorus)
  G#            A#        Cm        D            Eb
e|---------------------------------------------|
B|--------------8---------9-8-------11-8-------|
G|---8h10p8-------10-8--------10-8--------10-8-|
D|-8---------8---------8-----------------------|
A|---------------------------------------------|
E|---------------------------------------------|


(Verse 2)
    Eb
Now,    I'm wanting this for sure
                   A#     Cm
And I'll beg for nothing more
                      A#
I'll plan all day and drive all night
                        G#
You'll love what's in store, I can't seem to stop this now
             Cm     A#    G#
Even if it's not so clear,   and I'll take what I can get
   Cm          A#           Cm      D
If you want me here (If you want me here)


(Chorus 2)
Eb     G#             A#       Cm
Say anything, but say what you mean.
         A#
When you whisper you want this
G#                   A#   G#  
Your eyes tell the same
Eb             G#
We are gaining speed
          A#     Cm
I can barely breathe
           A#                  
'cause I'm caught in suspension


(Post-chorus) (x2)
  G#            A#        Cm        D           
e|---------------------------------------------|
B|--------------8---------9-8-------11-8-------|
G|---8h10p8-------10-8--------10-8--------10-8-|
D|-8---------8---------8-----------------------|
A|---------------------------------------------|
E|---------------------------------------------|


(Bridge) 
A#                            G#
It's enough for me to get excited
A#                              Cm  A#  G#  
It's enough for me to feel...woah oh oh oh oh

(Chords) Eb    A# Cm    A#    G#    A# Cm     A#
(Tabs)
e|------------------------------------------------------------------11---|
B|----------11-------8----------9-8----------------11------8----------11-|
G|---8-10-8-----8-10-----8-10-8-----10-8----8-10-8----8-10---8-10-8------| 
D|-8--------------------------------------8------------------------------| x1
A|-----------------------------------------------------------------------|
E|-----------------------------------------------------------------------|

e|---------------------------------------|
B|----------11-------8----------9-8------|
G|---8-10-8-----8-10-----8-10-8-----10-8-| 
D|-8-------------------------------------|   x3
A|---------------------------------------|
E|---------------------------------------|

e|-----------------------------------|
B|----------11-------11-------11-----|
G|---8-10-8-----8-10-----8-10-----8--| 
D|-8---------------------------------|  x1
A|-----------------------------------|
E|-----------------------------------|

e|---------------------------------------|
B|----------11-------8----------9-8------|
G|---8-10-8-----8-10-----8-10-8-----10-8-| 
D|-8-------------------------------------|   x1
A|---------------------------------------|
E|---------------------------------------|

e|---------------------------------------------|
B|----------11-------8-------------------------|
G|---8-10-8-----8-10-----8-10-8--7-7---7-7---7-| 
D|-8-----------------------------8-8---8-8---8-|  x1
A|-------------------------------8-8---8-8---8-|
E|-------------------------------6-6---6-6---6-|


(Chorus 3)
Eb     G#             A#       Cm
Say anything, but say what you mean.
         A#
When you whisper you want this
G#                   
Your eyes tell the same


(Chorus 4) (X3)
Eb             G#
We are gaining speed (suspension)
          A#     Cm
I can barely breathe (Oh, I can barely breathe)
    A#              G#
I'm caught in suspension (suspension)
           A#
I'm caught in suspension 

Eb     G#
Say Anything(suspension)
        A#       Cm
But say what you mean (Oh, please say what you mean)
    A#              G#
I'm caught in suspension (suspension)
           A#
I'm caught in suspension 


(Post-chorus) (x2)
  G#            A#        Cm        D            (End on Eb)
e|---------------------------------------------|
B|--------------8---------9-8-------11-8-------|
G|---8h10p8-------10-8--------10-8--------10-8-|
D|-8---------8---------8-----------------------|
A|---------------------------------------------|
E|---------------------------------------------|
Suggest correction
Give kudos to tab author, rate the tab!
1 2 3 4 5
comments
print report bad tab
guest
You may want to rate the tab now too:
select rating
Wanna post a correction for this tab? Suggest correction