Oops, an error
Loading. Please wait.

Suspension Tab

version 3
version 3

Whole song

Interactive

by Mae
3,016 views 3 this week
no commentswrite comment
1 2 3 4 5
please rate
add to favorites
launch autoscroll
font size
0
reset
how to read this tab
guitar tuner
Tab Pro tools
  • play this tab
  • loop segment
  • change instrument
  • show fretboard
  • metronome
×
Best way to learn
"Suspension"
Autoscroll
slow
fast
+/-
esc
set tempo
stop
Contributor
Mae
Suspension
Standard Tuning

x: mute string
s: slide


Intro:
E----------------------------------------------|
B------------11--------8------9-8--------------|
G---8-10-8--------8-10---8-10-----10-8---------|
D----------8-----------------------------------| x4
A----------------------------------------------|
E----------------------------------------------|


Verse 1&2:
E-------------------------------------------|
B-------------------------------------------|
G--8----------------------------------------|
D--8----------6--------10----------8--------|
A--6----------6--------10----------8--------|
E-------------4---------8----------6--------|
  
E------------------------------|
B------------------------------|
G--8---------------------------|
D--8----------6----------8-----|
A--6----------6----------8-----|
E-------------4----------6-----|

     
E--------------------------------------------------------|
B--------------------------------------------------------|
G-8------------------------------------------------------|
D-8-----------6-----------101010--88--101010--121212-----|
A-6-----------6-----------101010--88--101010--121212-----|
E-------------4------------8-8-8--66---8-8-8--101010-----|


Guitar 2 plays something during the Verses but i couldn't really figure it out

Chorus 1:
E-----------------------------------------------|
B-----------------------------------------------|
G-8---------------------------------------------|
D-8---------6-----------10--------------8-------|
A-6---------6-----------10--------------8-------|
E-----------4------------8--------------6-------|


Post Chorus:
Guitar 1
E------------------------------8------------------------|
B-------8---9--------11---------------------------------|
G--8h10---8---8-10-8----8-10-8---8-10-8-----------------|
D-------------------------------------------------------|
A-------------------------------------------------------|
E-------------------------------------------------------|

Guitar 2
E---------------------------|
B---------------------------|
G--------------77--88-------|
D--6--88--10---77--88-------|
A--6--88--10---55--66-------|
E--4--66---8----------------|


Chorus 2 (When you whisper...):
E--------------------------------------------------------------------|
B--------------------------------------------------------------------|
G-8------------------------------------------------------------------|
D-8--------6--------10-----------8--------6--------------888--333----|
A-6--------6--------10-----------8--------6--------------888--333----|
E----------4---------8-----------6--------4--------------666--111----|

Repeat Chorus 1 (x1) and Post Chorus (x2)


Interlude (It's enough for me...):
E------------------------------------------------------------|
B------------------------------------------------------------|
G-8----------------------------------------------------------|
D-8----------------6---------------------------10--8--6--8---|
A-6----------------6---------------------------10--8--6--8---|
E------------------4---------------------------8---6--4--6---|

Guitar 1 plays Intro

Guitar 2

E--------------------------------------------------|
B--------------------------------------------------|
G-7-8-10--s3----10-12-15----7-8-10--s3----10-12-7--|
D-x-x--x---x-----x--x--x----x-x--x---x-----x--x-x--|
A-5-6--8---1-----8-10-13----5-6--8---1-----8-10-5--|
E--------------------------------------------------|

Listen for strumming
E-----------------------|
B-----------------------|
G--13-15-12-13-10-------|
D---x--x--x--x--x-------|
A--11-13-10-11--8-------|
E-----------------------|

Repeat Chorus 2 (x4) And Post Chorus (x2)

END
comments
We did not receive enough feedback on this tab! Please rate:
print report bad tab
1 2 3 4 5
I want to post or [tab]
guest
You may want to rate the tab now too:
select rating
Please do not post tabs as comments. Select "correction" instead!