Oops, an error
Loading. Please wait.

Wie Alle Kippenstummel Zwischen Den Bahngleisen Zusammen Tab

46 views 6 this week
no commentswrite comment
1 2 3 4 5
3 more votes to show rating
add to favorites
launch autoscroll
font size
0
reset
how to read this tab
guitar tuner
Autoscroll
slow
fast
+/-
esc
set tempo
stop
Help us to improve Ultimate-Guitar.com Take our survey!
×
Author
Difficulty
novice
Wie alle Kippenstummel zwischen den Bahngleisen zusammen (Acoustic)
Tilt 2016
Maeckes

Standard Tuning
No Capo

...Doch sie kam

e|-------0---------------0---------|
B|-----1---1-----------1---1-------|
G|---0-------0---0---0-------0---0-|
D|---------------------------------|
A|-3-----------3---3-----------3---|
E|---------------------------------|
   nie.        Und ich wartete solang,

e|-------1---------------1---------|
B|-----3---3-----------3---3-------|
G|---2-------2---2---2-------2---2-|
D|---------------------------------|
A|-3-----------3---3-----------3---|
E|---------------------------------|
                             wie alle

e|-------1---------------1---------|
B|-----3---3-----------3---3-------|
G|---0-------0---0---0-------0---0-|
D|---------------------------------|
A|-2-----------2---2-----------2---|
E|---------------------------------|
   Kippenstummel zwischen den Bahngleisen zusammen.

e|-------0---------------0---------|
B|-----1---1-----------1---1-------|
G|---2-------2---2---2-------2---2-|
D|---------------------------------|
A|-0-----------0---0-----------0---|
E|---------------------------------|
               Verdammt, mach ich mir halt noch eine

e|-------0---------------0---------|
B|-----0---0-----------0---0-------|
G|---0-------0---0---0-------0---0-|
D|---------------------------------|
A|---------------------------------|
E|-0-----------0---0-----------0---|
   an.       Doch irgendwann dreht sich die Erde

e|-------0---------------0---------|
B|-----1---1-----------1---1-------|
G|---2-------2---2---2-------2---2-|
D|---------------------------------|
A|---------------------------------|
E|-1-----------1---1-----------1---|
 weiter.     Doch irgendwann dreht sich die Erde

e|-------0---------------0---------|
B|-----1---1-----------1---1-------|
G|---0-------0---0---0-------0---0-|
D|---------------------------------|
A|-3-----------3---3-----------3---|
E|---------------------------------|
weiter.     Doch irgendwann dreht sich die Erde

e|-------0-----------|
B|-----1---1---------|
G|---2-------2---2---|
D|-------------------|
A|-------------------|
E|-1-----------1---1-|
weiter...
Suggest correction
Give kudos to tab author, rate the tab!
1 2 3 4 5
comments
print report bad tab
guest
You may want to rate the tab now too:
select rating
Wanna post a correction for this tab? Suggest correction