Oops, an error
Loading. Please wait.

Vollkommen Tab

7 views 1 this week
no commentswrite comment
1 2 3 4 5
3 more votes to show rating
add to favorites
launch autoscroll
font size
0
reset
how to read this tab
guitar tuner
Autoscroll
slow
fast
+/-
esc
set tempo
stop
Help us to improve Ultimate-Guitar.com Take our survey!
×
Author
Difficulty
Tuning
novice
C G C F A D
About this tab version
The first tab that's out there. Was this info helpful? Yes No
Song: Vollkommen
Artist: Maerzfeld
Tuning: Drop C

I've decided to figure out a lot of Maerzfeld,
since there's only one tab out there from them.


[Intro Pt. 1]

d|--------------------------|
A|--------------------------|
F|--------------------------| 
C|--------------------------|
G|-0-0-0-0--0-0-0-0--0-0-0-0|
C|-0-0-0-0--0-0-0-0--0-0-0-0|(x4)
   . . . .  . . . .  . . . .


[Intro Pt. 2]

d|----------------------------------------------------|
A|----------------------------------------------------|
F|----------------------------------------------------| 
C|----------------------------------------------------|
G|-2-2-2-2--2-2-2-2--5-5-5-5-2-2-2-2--2-2-2-2--8-8-8-8|
C|-2-2-2-2--2-2-2-2--5-5-5-5-2-2-2-2--2-2-2-2--8-8-8-8|(x2)
   . . . .  . . . .  . . . . . . . .  . . . .  . . . .


[Pre-Verse to Verse 2]

d|----------------------------------------------------|
A|----------------------------------------------------|
F|----------------------------------------------------|
C|----------------------------------------------------|
G|-2-2-2-2--2-2-2-2--5-5-5-5-2-2-2-2--2-2-2-2--8-8-8-8|
C|-2-2-2-2--2-2-2-2--5-5-5-5-2-2-2-2--2-2-2-2--8-8-8-8|
   . . . .  . . . .  . . . . . . . .  . . . .  . . . .

[Chorus 1, 2, and 3] 

(Guitar 1)
d|---------------------------|
A|---------------------------|
F|-----------------5~--------|
C|-7~------7~------5~------5~|
G|-5~------4~------3~------5~|
C|-0~------4~--------------5~|

d|---------------------------|
A|---------------------------|
F|-----------------5~--------|
C|-7~------7~------5~------7~|
G|-5~------4~------3~------7~|
C|-0~------4~--------------7~|


[Chorus 1 and 2] 

(Guitar 2) (3 is down at the bottom...)
d|----------------------------------------------------|
A|----------------------------------------------------|
F|----------------------------------------------------|
C|----------------------------------------------------|
G|-5-5-5-5--5-5-5-5--5-5-5-5-5-5-5-5--5-5-5-5--5-5-5-5|
C|----------------------------------------------------|
   . . . .  . . . .  . . . . . . . .  . . . .  . . . .

d|----------------------------------------------------|
A|----------------------------------------------------|
F|----------------------------------------------------|
C|----------------------------------------------------|
G|-4-4-4-4--4-4-4-4--4-4-4-4-4-4-4-4--4-4-4-4--4-4-4-4|
C|----------------------------------------------------|
   . . . .  . . . .  . . . . . . . .  . . . .  . . . .

d|----------------------------------------------------|
A|----------------------------------------------------|
F|----------------------------------------------------|
C|----------------------------------------------------|
G|-3-3-3-3--3-3-3-3--3-3-3-3-3-3-3-3--3-3-3-3--3-3-3-3|
C|----------------------------------------------------|
   . . . .  . . . .  . . . . . . . .  . . . .  . . . .

d|----------------------------------------------------|
A|----------------------------------------------------|
F|----------------------------------------------------|
C|----------------------------------------------------|
G|----------------------------------------------------|
C|-5-5-5-5--5-5-5-5--5-5-5-5-5-5-5-5--5-5-5-5--5-5-5-5|
   . . . .  . . . .  . . . . . . . .  . . . .  . . . .

d|----------------------------------------------------|
A|----------------------------------------------------|
F|----------------------------------------------------|
C|----------------------------------------------------|
G|-5-5-5-5--5-5-5-5--5-5-5-5-5-5-5-5--5-5-5-5--5-5-5-5|
C|----------------------------------------------------|
   . . . .  . . . .  . . . . . . . .  . . . .  . . . .

d|----------------------------------------------------|
A|----------------------------------------------------|
F|----------------------------------------------------|
C|----------------------------------------------------|
G|-4-4-4-4--4-4-4-4--4-4-4-4-4-4-4-4--4-4-4-4--4-4-4-4|
C|----------------------------------------------------|
   . . . .  . . . .  . . . . . . . .  . . . .  . . . .

d|----------------------------------------------------|
A|----------------------------------------------------|
F|----------------------------------------------------|
C|----------------------------------------------------|
G|-3-3-3-3--3-3-3-3--3-3-3-3-3-3-3-3--3-3-3-3--3-3-3-3|
C|----------------------------------------------------|
   . . . .  . . . .  . . . . . . . .  . . . .  . . . .

d|----------------------------------------------------|
A|----------------------------------------------------|
F|----------------------------------------------------|
C|----------------------------------------------------|
G|----------------------------------------------------|
C|-7-7-7-7--7-7-7-7--7-7-7-7-7-7-7-7--7-7-7-7--7-7-7-7|
   . . . .  . . . .  . . . . . . . .  . . . .  . . . .


Pre-Verse:

d|--------------------------|
A|--------------------------|
F|--------------------------| 
C|--------------------------|
G|-0-0-0-0--0-0-0-0--0-0-0-0|
C|-0-0-0-0--0-0-0-0--0-0-0-0|(x4)
   . . . .  . . . .  . . . .


[Verse 3]

d|----------------------------------------------------|
A|----------------------------------------------------|
F|----------------------------------------------------| 
C|----------------------------------------------------|
G|-2-2-2-2--2-2-2-2--5-5-5-5-2-2-2-2--2-2-2-2--8-8-8-8|
C|-2-2-2-2--2-2-2-2--5-5-5-5-2-2-2-2--2-2-2-2--8-8-8-8|(x4)
   . . . .  . . . .  . . . . . . . .  . . . .  . . . .


[Bridge]

d|---------------------|
A|---------------------|
F|---------------------|
C|-12-12-9\-------12-12|
G|-12-12-9\-------12-12|
C|-12-12-9\-------12-12|

d|---------------------------|
A|---------------------------|
F|---------------------------| 
C|---------------------------|
G|-9--9-9--9-9--9-9--9-9--9-9|
C|-9--9-9--9-9--9-9--9-9--9-9|(x8)
   .  . .  . .  . .  . .  . .


[Chorus 3] 

(Guitar 2)
d|----------------------------------------------------|
A|----------------------------------------------------|
F|----------------------------------------------------|
C|----------------------------------------------------|
G|-3-3-3-3--3-3-3-3--3-3-3-3-3-3-3-3--3-3-3-3--3-3-3-3|
C|----------------------------------------------------|
   . . . .  . . . .  . . . . . . . .  . . . .  . . . .

d|----------------------------------------------------|
A|----------------------------------------------------|
F|----------------------------------------------------|
C|----------------------------------------------------|
G|----------------------------------------------------|
C|-5-5-5-5--5-5-5-5--5-5-5-5-5-5-5-5--5-5-5-5--5-5-5-5|
   . . . .  . . . .  . . . . . . . .  . . . .  . . . .

d|----------------------------------------------------|
A|----------------------------------------------------|
F|----------------------------------------------------|
C|----------------------------------------------------|
G|-5-5-5-5--5-5-5-5--5-5-5-5-5-5-5-5--5-5-5-5--5-5-5-5|
C|----------------------------------------------------|
   . . . .  . . . .  . . . . . . . .  . . . .  . . . .

d|----------------------------------------------------|
A|----------------------------------------------------|
F|----------------------------------------------------|
C|----------------------------------------------------|
G|-4-4-4-4--4-4-4-4--4-4-4-4-4-4-4-4--4-4-4-4--4-4-4-4|
C|----------------------------------------------------|
   . . . .  . . . .  . . . . . . . .  . . . .  . . . .

d|----------------------------------------------------|
A|----------------------------------------------------|
F|----------------------------------------------------|
C|----------------------------------------------------|
G|-3-3-3-3--3-3-3-3--3-3-3-3-3-3-3-3--3-3-3-3--3-3-3-3|
C|----------------------------------------------------|
   . . . .  . . . .  . . . . . . . .  . . . .  . . . .

d|----------------------------------------------------|
A|----------------------------------------------------|
F|----------------------------------------------------|
C|----------------------------------------------------|
G|----------------------------------------------------|
C|-7-7-7-7--7-7-7-7--7-7-7-7-7-7-7-7--7-7-7-7--7-7-7-7|
   . . . .  . . . .  . . . . . . . .  . . . .  . . . .


[Outro]
                           (x3)
d|--------------------------||-----------------|
A|--------------------------||-----------------|
F|--------------------------||-----------------|
C|--------------------------||-----------------|
G|-0-0-0-0--0-0-0-0--0-0-0-0||-0-0-0-0--0-0-0-0|
C|-0-0-0-0--0-0-0-0--0-0-0-0||-0-0-0-0--0-0-0-0|
   . . . .  . . . .  . . . .   . . . .  . . . .


************************************

| \  Slide down
| ~  Vibrato

************************************
Suggest correction
Give kudos to tab author, rate the tab!
1 2 3 4 5
comments
print report bad tab
guest
You may want to rate the tab now too:
select rating
Wanna post a correction for this tab? Suggest correction