Oops, an error
Loading. Please wait.

Agosto Esquimal Bass Tab

by Maga
26 views 1 this week
no commentswrite comment
1 2 3 4 5
3 more votes to show rating
add to favorites
launch autoscroll
font size
0
reset
guitar tuner
Autoscroll
slow
fast
+/-
esc
set tempo
stop
Help us to improve Ultimate-Guitar.com Take our survey!
×
No es verdad, que no quiero querer mas

guardo el mar, en un bote de aguarras


   |--------------------------------------------------------------------11--11s4--4s11-----||
   |---8~ --------------------------------------------------------------------------------||
   |---------------------------------------------------------------------------------------||
   |---------------3~ ---------------6~---6s18-----18-18-18--18---18-18----------------------||
       curame con tus dedos y llevame a tu lado...                       A mi lado...


   |-11s4--2--2s11---11s4--4s11--11s4--2--------------||
   |--------------------------------------------------||
   |--------------------------------------------------||
   |--------------------------------------------------||
     ya no estas, ya no estas...ya no...

Riff 1
|--------------------------------------------------||
|--------------------------------------------------||
|--------------------------------------------------||
|-3-3-3-3-3-3-3-3s12-12-12-12-12-12-12-12----------||


Riff 1
Voy nadando a mariposa entre tus manos, quiero dar marcha atras...

Amarillo patinar, malgastar, tiño una casualidad


   |---------------------------------------------------------------------------------------||
   |---------------------------------------------------------------------------------------||
   |---------------------------------------------------------------------------------------||
   |---6-6-6-6-6-6-----3-3-3-3-3-3----6-6-6-6-6-6~---6s18-----18-18-18--18---18-18---------||
      De color          de amapola    Y se sento a tu lado...

   |-11--11s4--4s11--11s4--2--2s11---11s4--4s11--11s4--2--||
   |------------------------------------------------------||
   |------------------------------------------------------||
   |------------------------------------------------------||
     A mi lado       ya no estas, ya no estas...ya no...


Riff 1
Voy nadando a mariposa entre tus manos, quiero dar marcha atras...


Mi pequeña esquimal...
                       |-11--11s4--4s11--11s4--2--2s11---11s4--4s11--11s4--2--||
                       |------------------------------------------------------||
                       |------------------------------------------------------||
                       |------------------------------------------------------||


   |-11--11s4--4s11--11s4--2--2s11---11s4--4s11--11s4--2--||
   |------------------------------------------------------||
   |------------------------------------------------------||
   |------------------------------------------------------||
     ya no estas, ya no estas...ya no...

Riff 1
Voy nadando a mariposa entre tus manos, mi pequeña...

Riff 1
Y voy nadando a mariposa entre tus manos, mi pequeña esquimal...

Riff 1
Esquimal
Suggest correction
Give kudos to tab author, rate the tab!
1 2 3 4 5
comments
print report bad tab
guest
You may want to rate the tab now too:
select rating
Wanna post a correction for this tab? Suggest correction