Oops, an error
Loading. Please wait.

Agosto Esquimal Chords

version 2
version 2

Whole song

52 views 1 this week
no commentswrite comment
1 2 3 4 5
3 more votes to show rating
add to favorites
launch autoscroll
font size
0
reset
transpose
0
reset
display chords
guitar tuner
×
Best way to learn
"Agosto Esquimal"
Autoscroll
slow
fast
+/-
esc
set tempo
stop
Temazo de Maga.

Oid la cancion y tocad este riff siguiendo el ritmo.

Riff 1:
E  |----------------------------------------||
B  |----------------------------------------||
G  |----------------------------------------||
D  |--------12-------12------10------10-----||
A  |-----12-------12------10------10--------||
E  |--10--------9-------8-------7-----------||

Otro riff, similar en el ritmo.
Riff 2:
E  |---------------------||
B  |---------------------||
G  |---------------------||
D  |--------12-------12--||
A  |-----12-------12-----||
E  |--10--------9--------||


Riff 1
No es verdad que no quiero querer más

Riff 1
guardo el mar en un bote de aguarrás

A#          G
cúrame con tus dedos,

A#
llévame a tu lado...

Riff2 (Id tocando el riff2 hasta empezar el estribillo)
a mi lado ya no estás,ya no estas...Ya no...

G    E        G    E    G        E
Voy nadando a mariposa entre tus manos.

G       E          Riff 1
quiero dar marcha atrás...amarillo patinar,

Riff 1
malgastar,tiñó una casualidad

A#         G
de color de amapola

A#
y se sentó con cuidado a mi lado...

Riff2(Igual que  hasta el estribillo este riff 2)
ya no está,ya no está...Ya no...

G    E        G    E    G        E
Voy nadando a mariposa entre tus manos

G     E
mi pequeña...

G    E        G    E    G        E
Y voy nadando a mariposa entre tus manos

G     E       D
mi pequeña esquimal...


(Aqui comienza la parte grabada, con teclados, loop y demas.
Si estais tocando la guitarra podeis acompañar esta parte con
un pequeño riff que realmente lo toca Javier con el bajo.)


Riff 3 :
 E  |----------------------------------||
 B  |----------------------------------||
 G  |--11--11s4---4s11--11s4--2--------||
 D  |----------------------------------||
 A  |----------------------------------||
 E  |----------------------------------||


Riff 3
ya no está,ya no está...Ya no...


G    E        G    E    G        E
Voy nadando a mariposa entre tus manos

G     E
mi pequeña...

G    E        G    E    G        E
Y voy nadando a mariposa entre tus manos

G     E       G
mi pequeña esquimal...

E   G
Esquimal...
Suggest correction
Give kudos to tab author, rate the tab!
1 2 3 4 5
comments
print report bad tab
guest
You may want to rate the tab now too:
select rating
Wanna post a correction for this tab? Suggest correction