Oops, an error
Loading. Please wait.

Astrolabios Bass Tab

11 views 1 this week
no commentswrite comment
1 2 3 4 5
3 more votes to show rating
add to favorites
launch autoscroll
font size
0
reset
guitar tuner
×
Best way to learn
"Astrolabios"
Autoscroll
slow
fast
+/-
esc
set tempo
stop
Bajo muy sencillo. Un pequeño cambio en el estribillo
en el que se acompaña a la melodia vocal.


Riff 1
   B
G|--------------------------------------------------------------------||
D|--------------------------------------------------------------------||
A|2-2-2-2-2-2-2-2-2-2-2-2-2-2-2-2-2-2-2-2-2-2-2-2-2...----------------||
E|--------------------------------------------------------------------||

Riff 2
   E
G|--------------------------------------------------------------------||
D|--------------------------------------------------------------------||
A|7-7-7-7-7-7-7-7-7-7-7-7-7-7-7-7-7-7-7-7-7-7-7-7-7...----------------||
E|--------------------------------------------------------------------||

Riff 3
G|--------------------------------------------------------------------||
D|--------------------------------------------------------------------||
A|...2-2-2s4-2S6------------------------------------------------------||
E|---------------6----------------------------------------------------||

Riff 4
G|--------------------------------------------------------------------||
D|--------------------------------------------------------------------||
A|...2-2-2s11-9s2-7-6-------------------------------------------------||
E|--------------------------------------------------------------------||

Riff 1
Mi querida solución lumínica
Riff 2
desde que te has ido, mi calle es gris plomo
Riff 1
las paredes de mi cuarto blanco agrio
Riff 2
y mi jardin varillas de paraguas.

Riff 1
Riff 2
Riff 1
Riff 2

Tenias curiosidad y te aventuraste,

entornando los ojos, hasta alinerlos con el horizonte.

Riff 1
Y un sin-ti a vapor te fabricaste
Riff 2
prometiendo besos sin boca, mañana.

Riff 1             Riff3
Un asterisco en la palma de mi mano.
Riff 1              Riff 4
Una acotacion de tu puño y letra.

Me permito este disfraz, para que no duela,

para que no duela, cuando vuelvas...

Basicamente toda la cancion es B y E.
Suggest correction
Give kudos to tab author, rate the tab!
1 2 3 4 5
comments
print report bad tab
guest
You may want to rate the tab now too:
select rating
Wanna post a correction for this tab? Suggest correction