Oops, an error
Loading. Please wait.

Piedraluna Bass

by Maga
22 views 1 this week
no commentswrite comment
1 2 3 4 5
3 more votes to show rating
add to favorites
launch autoscroll
font size
0
reset
guitar tuner
×
Best way to learn
"Piedraluna"
Autoscroll
slow
fast
+/-
esc
set tempo
stop
Riff 1
       G          A
 G  |----------------------------------||
 D  |-------5-5-----7------7-----------||
 A  |----5-5---5-----------------------||
 E  |--3----------5---5-5--------------||


Riff 2
       G          A
 G  |----------------------------------||
 D  |-------5-5--------7-7-------------||
 A  |----5-5---5----7-7---7------------||
 E  |--3----------5--------------------||

Riff 3
       G          A          Bm
 G  |-------------------------------------------------||
 D  |-------5-5--------7-7---9-------------9-------9--||
 A  |----5-5---5----7-7---7----9-9-----9--------------||
 E  |--3----------5----------------7-7---7----7-7-----||


Riff 4

       G                 A
 G  |--------------------------------------------------||
 D  |--------------------------------------------------||
 A  |--------------------------------------------------||
 E  |--3-3-3-3-3-3-3-3-3-5-5-5-5-5-5-5-5---------------||


(Sin bajo)

Ella salió de casa con la via lactea,

tatuada en la cara mientras murmuraba...

Riff 1
Como pueden hablar de lo que no saben...

Riff 2
Como pueden hablar de lo que no saben...

Riff 3
Si me dan la espalda no sabran, cuanto sol le he vendido al mar por tempestad.


Riff 4
Ella salió de casa con la via lactea,

tatuada en la cara mientras murmuraba...


El resto de la canción es similar, la combinacion de Riffs es igual a 
Suggest correction
Give kudos to tab author, rate the tab!
1 2 3 4 5
comments
print report bad tab
guest
You may want to rate the tab now too:
select rating
Wanna post a correction for this tab? Suggest correction