Oops, an error
Loading. Please wait.

Shot By Both Sides Tab

version 1
version 1

Intro

Solo

Video

5,791 views 9 this week
no commentswrite comment
1 2 3 4 5
worth learning
x 1
add to favorites
launch autoscroll
font size
0
reset
how to read this tab
guitar tuner
Tab Pro tools
  • play this tab
  • loop segment
  • change instrument
  • show fretboard
  • metronome
Autoscroll
slow
fast
+/-
esc
set tempo
stop
Difficulty
intermediate
Shot by both sides solo
Magazine
/ = Slide
’ = Bend up
_ = Slide down string


|11-11--------/14-14-13-11-9’--------------|
|11-11-9----9------------------------------|
|--------11--------------------------------|
|------------------------------------------|
|------------------------------------------|
|------------------------------------------|

|------------------------------------------|
|-------------11-8-11-11/-13-11------------|
|-------11---------------------------------|
|----12----12------------------------------|
|-13---------------------------------------|
|------------------------------------------|

|--------------------------------11--------|
|-14’-------------14-13-12-11-10-----------|
|-----13’-----13’--------------------------|
|---------11’------------------------------|
|------------------------------------------|
|------------------------------------------|

|-9/-11-11-13-14-13-11-14-13-11-10-11-10---|
|------------------------------------------|
|------------------------------------------|
|------------------------------------------|
|------------------------------------------|
|------------------------------------------|

|-11-10-11-10-11-10-11/-14-13--------------|
|-----------------------------11_----------|
|------------------------------------------|
|------------------------------------------|
|------------------------------------------|
|------------------------------------------|
comments
We did not receive enough feedback on this tab! Please rate:
print report bad tab
1 2 3 4 5
I want to post or [tab]
guest
You may want to rate the tab now too:
select rating
Please do not post tabs as comments. Select "correction" instead!