Oops, an error
Loading. Please wait.

Song From Under The Floorboards bass

418 views 1 this week
no commentswrite comment
1 2 3 4 5
3 more votes to show rating
add to favorites
×
Save as Personal and add changes to this tab that will be seen only by you. Learn more ›
×
You can save this tab as Personal to edit and correct it or add notes. All changes will be seen only by you. Learn more »
launch autoscroll
font size
0
reset
guitar tuner
edit
Autoscroll
slow
fast
+/-
esc
set tempo
stop
Author
-------------------------------------------------------------------------------
                 A SONG FROM UNDER THE FLOORBOARDS - Magazine
-------------------------------------------------------------------------------
Tabbed by: SPLAM!
Bassist: Barry Adamson
Tuning: EADG

Mostly played staccato.

Intro:
  1 + 2 + 3 + 4 +  1 + 2 + 3 + 4 +  1 + 2 + 3 + 4 +  1 + 2 + 3 + 4 +  
G|----------------|----------------|----------------|----------------|
D|----------------|----------------|----------------|----------------|
A|5-5-5-5-5-5-5-5/|8-8-8-8-8-8-8-8\|1-1-1-1-1-1-1-1/|1010101010101010|
E|----------------|----------------|----------------|----------------|
                                                     10s, not 1 0
Verse:
  1 + 2 + 3 + 4 +  1 + 2 + 3 + 4 +  1 + 2 + 3 + 4 +  1 + 2 + 3 + 4 +   
G|--------------7-|--------------5-|--------------3-|----------------|
D|----------------|----------------|----------------|----3---3-3-----|
A|5-5-5-5-5-5.-5--|3-3-3-3-3-3-3---|1-1-1-1-1-1-1---|--3---3-------3-|
E|----------------|----------------|----------------|1-----------1---|

 1 + 2 + 3 +   4  +  
G|-------------------|
D|3-----3---3/5\3----|
A|----3--------------|
E|--1----------------|

Play this first section twice.
then:
  1 + 2 + 3 + 4 +  1 + 2 + 3 + 4 +  1 + 2 + 3 + 4 +  1 + 2 + 3 + 4 +  1 + 2 + 3 + 4 +  
G|--------------7-|--------------5-|--------------3-|----------------|----------------|
D|----------------|----------------|----------------|----------------|55--------------|
A|5-5-5-5-5-5.-5--|3-3-3-3-3-3-3---|1-1-1-1-1-1-1---|----------------|----------------|
E|----------------|----------------|----------------|3-3-3-3-3-3-3-3-|--3-3-3.---53---|

Return to first section of verse and play once.

Chorus:
  1 + 2 + 3  + 4 +  1 + 2 + 3  + 4  +  
G|-----------------|------------------|
D|-----------------|------------------|
A|-----------------|8-8-10108/10.10\8-|
E|6-6-8-8-6/8.-8\6-|------------------|
                        10s, not 1 0

The bridge is just the last two bars of the second part of the verse (the bit in G), with 
the syncopated rhythm only played in the last bar, rather than played on every repeat of 
the two-bar pattern.

At the end, Barry improvises and alternates between different patterns and riffs upon the 
chorus bassline. Improvise as you see fit.


| /  slide up
| \  slide down
| .  (next to a note) dotted
===============================================================================

            
            
Suggest correction
Creating personal tab
Creating personal tab
You can edit any tab online and save it as your Personal.

You can edit, replace or remove any tab part or add personal notes – all changes will be seen only by you.

Personal tabs can be accessed anytime from any device, even offline.
Learn more »
Give kudos to tab author, rate the tab!
1 2 3 4 5
comments
print report bad tab
guest
You may want to rate the tab now too:
select rating
Wanna post a correction for this tab? Suggest correction