Oops, an error
Loading. Please wait.

Mariposas Tab

97 views 1 this week
no commentswrite comment
1 2 3 4 5
3 more votes to show rating
add to favorites
×
Save as Personal and add changes to this tab that will be seen only by you. Learn more ›
×
You can save this tab as Personal to edit and correct it or add notes. All changes will be seen only by you. Learn more »
save as personal
new!
launch autoscroll
font size
0
reset
how to read this tab
guitar tuner
Autoscroll
slow
fast
+/-
esc
set tempo
stop
La canción no esta exactamente igual, pero casi.
En un 95% diría yo, ojalá les sirva.

Intro:
e----------------------------------------
B----------------------------------------
G--0--------0---------0----------0-------
D--0--------0---------0----------0-------
A----------------------------------------
E----3--3------3---------3--3-------3----

----------------------------------------
----------------------------------------
---2--------2---------2----------2------
---2--------2---------2----------2------
----------------------------------------
----3--3------3---------3--3-------3----

-------------------------          ------------------------
------------0------------          ------------------------
---2---------------------          ---2---------2----------
---1---------------------   x4     ---2---------2----------   x2
-------------------------          ------------------------
--------3-------3--------          ------3--3------3-------

     Mírame?
------------------------------------
--0--------0---------0---------0----
--0--------0---------0---------0----
--0--------0---------0---------0----
------------------------------------
-----3--3-----3---------3--3-----3--


      como a las mariposas

--------------------------0----------------------------
----- 3------------------------------------------------
----- 0-----------0----------------------0--------0----
----- 2-----2---------2------------------0--------0----
------3------------------------------------------------
-----------------------------------3---------3---------

Su belleza,  te enamora?
-----------------------------------------------------------------------
-------------------3---------------------3-------------------------3---
--------0---------------------0--------------------------0-------------
-----4---------4----------4---------4--------4-------4--------4--------
--2---------2----------3---------3----------------3--------3-----------
-----------------------------------------------------------------------

   Y  como     las   entiendes
-------------------------------------
----------------1------------------3-
--------0-------------------0--------
-----2------2------------2-----2-----
--0----------------------------------
-----------------------0-------------

cuando ves que  se     transforman
--------------------------------------------0--------
---------------------2----------------------3--------
---------------------1-------------0-----------------
--------------------------------2------2-------------
--------3---------2----------------------------------
------------------------------0----------------------

    C9        D9/F#*
Mariposas?
G      C9                 G
Háblame como lo haces con ellas
     Em7           C9
Dulcemente, largas horas
Am7            G
Cómo te vuelve loco
       C9      D9/F#  Em7        C9
Cuando ves que no se alejan, mariposas

C9
Tómame entre tus manos
         Em7
Así en silencio y dame tu sombra
D9/F#
Acaríciame suave
          C9
que yo no pierda color ni forma

C9                            Em7
Déjame libre cuando me veas inquieta
Me veas ansiosa
D9/F#
Que no es para escaparme
          C9
Yo vuelvo cuando tu amor me nombra

G       C9              G
Búscame sabes donde se alojan
     Em7         C9
Al rocío de la aurora
Am7               G
Vuelan de rosa en rosa
    C9  D9/F#  Em7
Corazones tornasol
Am7              G
Le gusta estar a solar
     C9
Pero vuelven

C9
Tómame entre tus manos
         Em7
Así en silencio y dame tu sombra
D9/F#
Acaríciame suave
          C9
que yo no pierda color ni forma

C9                            Em7
Déjame libre cuando me veas inquieta
Me veas ansiosa
D9/F#
Que no es para escaparme
          C9
Yo vuelvo cuando tu amor me nombra

*
D9/F#
-3-
-3-
-2-
-0-
-0-
-2-
Suggest correction
Give kudos to tab author, rate the tab!
1 2 3 4 5
comments
print report bad tab
guest
Wanna post a correction for this tab? Suggest correction