Oops, an error
Loading. Please wait.

Red Dress bass

version 1
version 1

Whole song

  • Full bass tab. Use a very fat bass tone with lower... Show more
  • D tuning, corrected notes to correct key, retimed ... Show more
by MAGIC!
325 views 18 this week
2 commentsread comments
1 2 3 4 5
1 last vote to show rating
add to favorites
×
Save as Personal and add changes to this tab that will be seen only by you. Learn more ›
×
You can save this tab as Personal to edit and correct it or add notes. All changes will be seen only by you. Learn more »
launch autoscroll
font size
0
reset
guitar tuner
edit
Autoscroll
slow
fast
+/-
esc
set tempo
stop
Author
Difficulty
intermediate
About this tab version
Full bass tab. Use a very fat bass tone with lower mids and treble to get this sound. Was this info helpful? Yes No
Magic - Red Dress


[Intro]
    hard to hear
G|---------------------------------|-------------------------------------|
D|-------------4-4-----------------|-------------6-6-------4-4-----------|
A|-2-2-----2-2---------------------|-4-4-----4-4-------------------------|
E|-----2-2-----------4-4-4---4-----|-----4-4-----------------------------|



[Verse]
G|---------------|----------------|----------------|-------------------|
D|---------------|----------------|----------------|-------------------|
A|---------------|--rest----------|-rest-----------|-------------------|
E|-7\------------|----------------|----------------|-2/----------------|

G|-------------------------------------|------------------------------|
D|---------9---------------------------|------------------------------|
A|-----9-9----------9-11-9-11-11----11-|-------------------9-9-7---9--|
E|-7-7---------------------------11----|-9-7-9---9--9-----------------|

G|--------------------------------------|-------------------------------|
D|-----------9--------------------------|-------------------------------|
A|-----9-9----------9-11-9-11-11-----11-|-------------------9-9-7---9-7-|
E|-7-7---------------------------11-----|-9-7-9---9--9------------------|



[Pre-Chorus]
G|--------------------------------|------------------------------|
D|-------------11-----------------|------------------------------|
A|-----------------9----------/11-|--------------------------/11-|
E|-9------------------------------|-9-----------4-2--------------|

G|--------------------------------|----------------9/11\9-------|
D|--------------------------------|-------------9---------------|
A|--------------11-9--------------|-7---------------------------|
E|-9------------------------------|--------------------------2/-|



[Chorus]
G|---------------------------------|------------------------------------|
D|---------------------------------|-----------6-6-6--------------------|
A|----------9-9-9-9/-------6-6-6---|-4-------4-------4---------/9---9---|
E|-7------7--------------4-------7-|------------------------------------|

G|-----------------------------------|-----------------------------------|
D|-------------------------6---------|-----------------------------------|
A|---------9-9-9-9/----------6-6-6---|-----------------9-9-9-9-9-11-9----|
E|-7-----7-------------------------7-|-9-9-9-9-9-9-9-9-------------------|

G|-----------------------------------|------------------------------------|
D|-------------------------6---------|-----------6-6-6--------------------|
A|----------9-9-9-9/---------6-6-6---|-4-------4-------4---------/9---9---|
E|-7------7------------------------7-|------------------------------------|

rest for 2 measures


[Verse 2]
G|--------------------------------------|------------------------------|
D|-----------9--------------------------|------------------------------|
A|-----9-9----------9-11-9-11-11-----11-|-------------------9-9-7---9--| play 2x
E|-7-7---------------------------11-----|-9-7-9---9--9-----------------|


[Pre-Chorus 2]
G|-----------------------------|------------------------------|
D|-----------------------------|------------------------------|
A|----------------9------------|------------------------------|
E|-9---------------------------|-9-------------2~~------------|

G|------------------------------|----------------------------|
D|------------------------------|----------------------------|
A|------------11-9--------------|---rest---------------------|
E|-9----------------------------|----------------------------|



[Chorus 2]
G|-----------------------------------|------------------------------------|
D|-------------------------6---------|-----------6-6-6--------------------|
A|----------9-9-9-9/---------6-6-6---|-4-------4-------4---------/9---9---|
E|-7------7------------------------7-|------------------------------------|

G|-----------------------------------|----------------------------------------|
D|-------------------------6---------|----------------------------------------|
A|----------9-9-9-9/---------6-6-6-6-|---------------------9-9-9-9-9-11-11-11-|
E|-7------7--------------------------|-9-9-9-9-9-9-9-9------------------------|

G|---------------------------------|---------6---------------------|
D|---------------------------------|-----6-----------------4-4-4/--|
A|------9------------------6-6-6---|-4-4---------------------------|
E|-7-7-----7-------4-4---4---------|---------------2-2---2---------|

G|---------------------------------|-----------------------------------|
D|---------------------------------|-----------------------------------|
A|------9------------------6-6-6/--|-----------------9-9-9-9-9-11-9----|
E|-7-7------7------4-4---4---------|-9-9-9-9-9-9-9-9-------------------|

G|-----------------------------------|------------------------------------|
D|-------------------------6-------6-|-----------6-6-6--------------------|
A|----------9-9-9-9/---------6-6-6---|-4-------4-------4---------/9---9---|
E|-7------7--------------------------|------------------------------------|



[Bridge]
G|-------------------------------|-------------------------------|
D|-------------------------------|-------------------------------|
A|-----------6-------------------|-------------------------------|
E|-7----7---------4----4----4/---|-9---9---9/11\9---14--14---14--|

    quiet, fade in
G|-------------------------------|-----------------------------------|
D|-------------------------------|-----------------------------------|
A|-------------------------------|-----------------9-9-9-9-9-11-9----|
E|-7--------------4--------------|-9-9-9-9-9-9-9-9-------------------|



[Outro]
G|---------------------------------|---------6---------------------|
D|---------------------------------|-----6-----------------4-4-4/--|
A|------9------------------6-6-6---|-4-4---------------------------|
E|-7-7-----7-------4-4---4---------|---------------2-2---2---------|

G|---------------------------------|-----------------------------------|
D|---------------------------------|-----------------------------------|
A|------9------------------6-6-6/--|-----------------9-9-9-9-9-11-9----|
E|-7-7-----7-------4-4---4---------|-9-9-9-9-9-9-9-9-------------------|


G|---------------------------------|------------------------------------|
D|-----------------------6-------6-|-----------6-6-6--------------------|
A|----------9-9-9-9/-------6-6-6---|-4-------4-------4---------/9---9---| play 2x
E|-7------7------------------------|------------------------------------|




************************************
KEY:

| /   Slide up
| \   Slide down
| ~   Vibrato

************************************
Suggest correction
Creating personal tab
Creating personal tab
You can edit any tab online and save it as your Personal.

You can edit, replace or remove any tab part or add personal notes – all changes will be seen only by you.

Personal tabs can be accessed anytime from any device, even offline.
Learn more »
Give kudos to tab author, rate the tab!
1 2 3 4 5
comments
print report bad tab
2 comments total.
0 reply
arnie17music 10 Feb 24, 2017 05:28 AM

Please post in original scale with changes. You have posted it in half scale higher. Thanks:)

guest
You may want to rate the tab now too:
select rating
Wanna post a correction for this tab? Suggest correction