Oops, an error
Loading. Please wait.

Red Dress bass

version 2
version 2

Whole song

  • Full bass tab. Use a very fat bass tone with lower... Show more
  • D tuning, corrected notes to correct key, retimed ... Show more
by MAGIC!
88 views 6 this week
2 commentsread comments
1 2 3 4 5
3 more votes to show rating
add to favorites
×
Save as Personal and add changes to this tab that will be seen only by you. Learn more ›
×
You can save this tab as Personal to edit and correct it or add notes. All changes will be seen only by you. Learn more »
launch autoscroll
font size
0
reset
guitar tuner
edit
Autoscroll
slow
fast
+/-
esc
set tempo
stop
About this tab version
D tuning, corrected notes to correct key, retimed and respaced, clear timed measures and timing queues. Was this info helpful? Yes No
[INTRO]

(low volume)

F|-----------------|-----------------|-----------------|-----12\---------|
C|-----------------|-----------------|-----------------|-----------------|
G|-----------------|-----------------|-5-5-----5-5-----|-----------------|
D|-8---------8-----|-------5---5-----|-------5---------|-----------------|
   1 + 2 + 3 + 4 +   1 + 2 + 3 + 4 +   1 + 2 + 3 + 4 +   1 + 2 + 3 + 4 +


[VERSE 1]

F|-----------------|-----------------|-----------------|-----------------|
C|-----------------|-----------------|-----------------|-----------------|
G|-----------------|-----------------|-----------------|-----------------|
D|-8\--------------|-----------------|-----------------|-----------------|
   1 + 2 + 3 + 4 +   1 + 2 + 3 + 4 +   1 + 2 + 3 + 4 +   1 + 2 + 3 + 4 +

F|-----------------|-----------------|-----------------|-----------------|
C|-----------------|-----------------|-----------------|---------------5-|
G|-----------------|-----------------|-----------------|-------5-7-5-7---|
D|-----------------|-----------------|-----------------|---3/5-----------|
   1 + 2 + 3 + 4 +   1 + 2 + 3 + 4 +   1 + 2 + 3 + 4 +   1 + 2 + 3 + 4 +

F|---------5-------|-----------------|-----------------|-----------------|
C|-----5---------5-|-7-5-7-7----/7---|-----------------|-----5-5-3---5---|
G|-3-3-------------|---------7-------|-5-3-5-3-5---5---|-----------------|
D|-----------------|-----------------|-----------------|-----------------|
   1 + 2 + 3 + 4 +   1 + 2 + 3 + 4 +   1 + 2 + 3 + 4 +   1 + 2 + 3 + 4 +

F|---------5-------|-----------------|-----------------|-----------------|
C|-----5---------5-|-7-5-7-5----/7---|-----------------|-----5-5-3---5---|
G|-3-3-------------|---------7-------|-5-3-5-3-5---5---|---------------5-|
D|-----------------|-----------------|-----------------|-----------------|
   1 + 2 + 3 + 4 +   1 + 2 + 3 + 4 +   1 + 2 + 3 + 4 +   1 + 2 + 3 + 4 +


[PRE-CHORUS 1]

F|---------------7-|-----------------|-----------------|-----------------|
C|-----------------|-5-------------7\|-----------------|-----------------|
G|-5---------------|-----------------|-5-------------2-|-------------7\--|
D|-----------------|-----------------|-----------------|-3---------------|
   1 + 2 + 3 + 4 +   1 + 2 + 3 + 4 +   1 + 2 + 3 + 4 +   1 + 2 + 3 + 4 +


F|-----------------|-----------------|----------------10/12\|-10---------------|
C|--------------/7-|-5---------------|-------------10-------|------------------|
G|-5---------------|-----------------|-8--------------------|------------------|
D|-----------------|-----------------|----------------------|------------------|
   1 + 2 + 3 + 4 +   1 + 2 + 3 + 4 +   1 + 2 + 3 + 4  +       1  + 2 + 3 + 4 +


[CHORUS 1]

F|-----------------|-------------------|-----------------|-----------------|
C|---------5-5-5-5-|-------------------|---------7-7-7---|--------/5---5---|
G|-3-----3---------|---------7-7-7-5\3-|-5-----5-------5-|-----------------|
D|-----------------|-------5-----------|-----------------|-------3---------|
   1 + 2 + 3 + 4 +   1 + 2 + 3 + 4 +     1 + 2 + 3 + 4 +   1 + 2 + 3 + 4 +

F|-----------------|-------------------|-----------------|-----------------|
C|---------5-5-5-5-|------/7-----------|-----------------|-5-5-5-5-5-7-5---|
G|-3-----3---------|---------7-7-7-5\3-|-5-5-5-5-5-5-5-5-|---------------5-|
D|-----------------|-------------------|-----------------|-----------------|
   1 + 2 + 3 + 4 +   1 + 2 + 3 + 4 +     1 + 2 + 3 + 4 +   1 + 2 + 3 + 4 +


[INTERLUDE]

F|-----------------|-------------------|-----------------|-----------------|
C|---------5-5-5-5-|------/7-----------|---------7-7-7---|--------/5---5---|
G|-3-----3---------|---------7-7-7-5\3-|-5-----5-------5-|-----------------|
D|-----------------|-------------------|-----------------|-------3---------|
   1 + 2 + 3 + 4 +   1 + 2 + 3 + 4 +     1 + 2 + 3 + 4 +   1 + 2 + 3 + 4 +

4 measures tacet


[VERSE 2]

F|---------5-------|-----------------|-----------------|-----------------|
C|-----5---------5-|-7-5-7-7----/7---|-----------------|-----5-5-3---5---|
G|-3-3-------------|---------7-------|-5-3-5-3-5---5---|-----------------|
D|-----------------|-----------------|-----------------|-----------------|
   1 + 2 + 3 + 4 +   1 + 2 + 3 + 4 +   1 + 2 + 3 + 4 +   1 + 2 + 3 + 4 +

F|---------5-------|-----------------|-----------------|-----------------|
C|-----5---------5-|-7-5-7-7----/7---|-----------------|-----5-5-3---5---|
G|-3-3-------------|---------7-------|-5-3-5-3-5---5---|-----------------|
D|-----------------|-----------------|-----------------|-----------------|
   1 + 2 + 3 + 4 +   1 + 2 + 3 + 4 +   1 + 2 + 3 + 4 +   1 + 2 + 3 + 4 +


[PRE-CHORUS 2]

F|-----------------|-----------------|-----------------|-----------------|
C|-----------------|/5---------------|-----------------|-----------------|
G|-5---------------|-----------------|-5---------------|-----------------|
D|-----------------|-----------------|-----------------|-3--br--br-------|
   1 + 2 + 3 + 4 +   1 + 2 + 3 + 4 +   1 + 2 + 3 + 4 +   1 + 2 + 3 + 4 +

F|-----------------|-----------------|-----------------|-----------------|
C|-----------------|-5-------------\-|-----------------|-----------------|
G|-5---------------|-----------------|-----------------|-----------------|
D|-----------------|-----------------|-----------------|-----------------|
   1 + 2 + 3 + 4 +   1 + 2 + 3 + 4 +   1 + 2 + 3 + 4 +   1 + 2 + 3 + 4 +


[CHORUS 2]

F|-----------------|-------------------|-----------------|-----------------|
C|---------5-5-5-5-|-------7-----------|---------7-7-7---|--------/5---5---|
G|-3-----3---------|---------7-7-7-5\3-|-5-----5-------5-|-----------------|
D|-----------------|-------------------|-----------------|-------3---------|
   1 + 2 + 3 + 4 +   1 + 2 + 3 + 4 +     1 + 2 + 3 + 4 +   1 + 2 + 3 + 4 +

F|-----------------|-------------------|-----------------|-----------------|
C|---------5-5-5-5-|------/7-----------|-----------------|-5-5-5-5-5-7-5---|
G|-3-----3---------|---------7-7-7-5\3-|-5-5-5-5-5-5-5-5-|---------------5-|
D|-----------------|-------------------|-----------------|-----------------|
   1 + 2 + 3 + 4 +   1 + 2 + 3 + 4 +     1 + 2 + 3 + 4 +   1 + 2 + 3 + 4 +

F|-----------------|-------------------|-----------------|-----------------|
C|---------5-5-5-5-|-------7-----------|---------7-7-7---|--------/5---5---|
G|-3-----3---------|---------7-7-7-5\3-|-5-----5-------5-|-----------------|
D|-----------------|-------------------|-----------------|-------3---------|
   1 + 2 + 3 + 4 +   1 + 2 + 3 + 4 +     1 + 2 + 3 + 4 +   1 + 2 + 3 + 4 +


F|-----------------|-------------------|-----------------|-----------------|
C|---------5-5-5-5-|------/7-----------|-----------------|-5-5-5-5-5b5b5b5b|
G|-3-----3---------|---------7-7-7-5\3-|-5-5-5-5-5-5-5-5-|-----------------|
D|-----------------|-------------------|-----------------|-----------------|
   1 + 2 + 3 + 4 +   1 + 2 + 3 + 4 +     1 + 2 + 3 + 4 +   1 + 2 + 3 + 4 +

F|---------5-------|-----------------|---------7-------|-----------------|
C|-----5---------5-|-----------------|-----7-----------|---------5-5-5-5-|
G|-3-3-------------|---------7-7-7-7-|-5-5-------------|-----------------|
D|-----------------|-5-5---5---------|-------------5---|-3-3---3---------|
   1 + 2 + 3 + 4 +   1 + 2 + 3 + 4 +   1 + 2 + 3 + 4 +   1 + 2 + 3 + 4 +

F|---------5-------|-----------------|-----------------|-----------------|
C|-----5---------5-|-----------------|-----------------|-5-5-5-5-5-5-5-5-|
G|-3-3-------------|---------7-7-7-7-|-5-5-5-5-5-5-5-5-|-----------------|
D|-----------------|-5-5---5---------|-----------------|-----------------|
   1 + 2 + 3 + 4 +   1 + 2 + 3 + 4 +   1 + 2 + 3 + 4 +   1 + 2 + 3 + 4 +


[INTERLUDE 2]

F|-----------------|-------------------|-----------------|-----------------|
C|---------5-5-5-5-|-------7-----------|---------7-7-7---|--------/5---5---|
G|-3-----3---------|---------7-7-7-5\3-|-5-----5-------5-|-----------------|
D|-----------------|-------------------|-----------------|-------3---------|
   1 + 2 + 3 + 4 +   1 + 2 + 3 + 4 +     1 + 2 + 3 + 4 +   1 + 2 + 3 + 4 +

F|-----------------|-----------------|-------------------|-----------------|
C|-----------------|-----------------|-------------------|-----------------|
G|-3-----3----/7\3-|-----------------|-------------------|-----------------|
D|-----------------|-5-----5-----5/--|-10----10--x/13\10-|-\/------15--15\-|
   1 + 2 + 3 + 4 +   1 + 2 + 3 + 4 +   1 + 2 + 3 + 4  +    1 + 2 + 3 + 4 +


[FINAL CHORUS]

4 measures tacet

F|-----------------|-----------------|-----------------|-----------------|
C|-----------------|-----------------|-----------------|/5-5-5-5-5-7-5---|
G|-----------------|---------------3/|-5-5-5-5-5-5-5-5-|---------------5-|
D|-----------------|-----------------|-----------------|-----------------|
   1 + 2 + 3 + 4 +   1 + 2 + 3 + 4 +   1 + 2 + 3 + 4 +   1 + 2 + 3 + 4 +

F|---------5-------|-----------------|---------7-------|-----------------|
C|-----5---------x-|-------7---------|-----7-----------|------/7-5-5-5-5-|
G|-3-3-------------|---------7-7-7-7-|-5-5-------------|-----------------|
D|-----------------|-5-5-------------|-------------x---|-3-3-------------|
   1 + 2 + 3 + 4 +   1 + 2 + 3 + 4 +   1 + 2 + 3 + 4 +   1 + 2 + 3 + 4 +

                                                         |--3--|
F|---------5-------|-----------------|-----------------|-------------------|
C|-----5-----------|------/7---------|-----------------|-5--5--5-5-7-5p3---|
G|-3-3-------------|---------7-7-7-7-|-5-5-5-5-5-5-5-5-|-----------------5-|
D|-----------------|-5-5-------------|-----------------|-------------------|
   1 + 2 + 3 + 4 +   1 + 2 + 3 + 4 +   1 + 2 + 3 + 4 +   1 + 2 + 3 + 4   +



[OUTRO]

F|-----------------|-------------------|-----------------|-----------------|
C|---------5-5-5-5-|------/7-----------|---------7-7-7---|--------/5---5---|
G|-3-----3---------|---------7-7-7-5\3-|-5-----5-------5-|-----------------|
D|-----------------|-------------------|-----------------|-------3---------|
   1 + 2 + 3 + 4 +   1 + 2 + 3 + 4 +     1 + 2 + 3 + 4 +   1 + 2 + 3 + 4 +

F|-----------------|-------------------|-----------------|-----------------|
C|---------5-5-5-5-|-------7-----------|---------7-7-7---|--------/5---5---|
G|-3-----3---------|---------7-7-7-5\3-|-5-----5-------5-|-----------------|
D|-----------------|-------------------|-----------------|-------3---------|
   1 + 2 + 3 + 4 +   1 + 2 + 3 + 4 +     1 + 2 + 3 + 4 +   1 + 2 + 3 + 4 +

(tacet until end)


************************************

| x   Dead note
| p   Pull-off
| b   Bend
| /   Slide up
| \   Slide down

************************************
Suggest correction
Creating personal tab
Creating personal tab
You can edit any tab online and save it as your Personal.

You can edit, replace or remove any tab part or add personal notes – all changes will be seen only by you.

Personal tabs can be accessed anytime from any device, even offline.
Learn more »
Give kudos to tab author, rate the tab!
1 2 3 4 5
comments
print report bad tab
2 comments total.
0 reply
arnie17music 10 Feb 23, 2017 12:14 AM

Can you post it in Standard tuning?

guest
You may want to rate the tab now too:
select rating
Wanna post a correction for this tab? Suggest correction