Oops, an error
Loading. Please wait.
We have Chord Pro version of Rude.
It's the closest thing you can get to the original song and it has interactive parts. Check out the tab »
×
by MAGIC!
130,867 views 243 this week
5 commentsread comments
1 2 3 4 5
x 28
add to favorites
×
Save as Personal and add changes to this tab that will be seen only by you. Learn more ›
×
You can save this tab as Personal to edit and correct it or add notes. All changes will be seen only by you. Learn more »
launch autoscroll
font size
0
reset
guitar tuner
edit
Autoscroll
slow
fast
+/-
esc
set tempo
stop
Author
Difficulty
intermediate
-------------------------------------------------------------------------------
RUDE - MAGIC! 
-------------------------------------------------------------------------------
Tabbed by: ThatWogBoy  (Paul Scaramella)
Tuning: Standard EADG


BASS ENTERS AT APPROX 0:15


[Intro]

G|-----------------------------------------------------------------------------|
D|----------444/6--6-4-6------666/8-----------444/6-6-4-------666/8--8-6-8-----| 
A|------------------------4-4---------------------------6-4-4--------------8-6-|
E|-4\---2-2-------------------------4x4x--2-2----------------------------------|


[Pre-Chorus]

G|---------------------------------|
D|-----------------------11--10--8-|
A|-9--11----------9--11------------|
E|--------13\-6--------------------|


[Chorus]

G|------------------------------------------------------------------------|
D|-----444/6--6-4-6------666/8-----------444/6-6-4-------666/8--6-8-6-----| 
A|-------------------4-4---------------------------6-4-4--------------6-8-|
E|-2-2-------------------------4x4x--2-2----------------------------------|

G|----------------------------------|
D|----------------------------------| 
A|---------------4-4-4------4-3-----|  X2
E|-2-2-2--4-4-4---------6-6-----6-4-|


[Verse]

G|------------------------------------------------------------------------|
D|-----444/6--6-4-6------666/8-----------444/6-6-4-------666/8--6-8-6-----| 
A|-------------------4-4---------------------------6-4-4--------------6-8-|
E|-2-2-------------------------4x4x--2-2----------------------------------|

G|------------------------------------------------------------------------|
D|-----444/6--6-4-6------666/8-----------444/6-6-4-------666/8--6-8-6-----| 
A|-------------------4-4---------------------------6-4-4--------------6-8-|
E|-2-2-------------------------4x4x--2-2----------------------------------|

G|-----------------------------------------------------------------------------|
D|----------444/6--6-4-6------666/8-----------444/6-6-4-------666/8--8-6-8-----| 
A|------------------------4-4---------------------------6-4-4--------------8-6-|
E|-4\---2-2-------------------------4x4x--2-2----------------------------------|


[Pre-Chorus]

G|---------------------------------|
D|-----------------------11--10--8-|
A|-9--11----------9--11------------|
E|--------13\-6--------------------|


[Chorus]

G|------------------------------------------------------------------------|
D|-----444/6--6-4-6------666/8-----------444/6-6-4-------666/8--6-8-6-----| 
A|-------------------4-4---------------------------6-4-4--------------6-8-|
E|-2-2-------------------------4x4x--2-2----------------------------------|

G|----------------------------------|
D|----------------------------------| 
A|---------------4-4-4------4-3-----|  X2
E|-2-2-2--4-4-4---------6-6-----6-4-|


[Verse]

G|------------------------------------------------------------------------|
D|-----444/6--6-4-6------666/8-----------444/6-6-4-------666/8--6-8-6-----| 
A|-------------------4-4---------------------------6-4-4--------------6-8-|
E|-2-2-------------------------4x4x--2-2----------------------------------|

G|------------------------------------------------------------------------|
D|-----444/6--6-4-6------666/8-----------444/6-6-4-------666/8--6-8-6-----| 
A|-------------------4-4---------------------------6-4-4--------------6-8-|
E|-2-2-------------------------4x4x--2-2----------------------------------|

G|-----------------------------------------------------------------------------|
D|----------444/6--6-4-6------666/8-----------444/6-6-4-------666/8--8-6-8-----| 
A|------------------------4-4---------------------------6-4-4--------------8-6-|
E|-4\---2-2-------------------------4x4x--2-2----------------------------------|

-NO BASS FOR ABOUT 15secs (You can play the pre chorus real light if you want)-


[Chorus]

G|------------------------------------------------------------------------|
D|-----444/6--6-4-6------666/8-----------444/6-6-4-------666/8--6-8-6-----| 
A|-------------------4-4---------------------------6-4-4--------------6-8-|
E|-2-2-------------------------4x4x--2-2----------------------------------|

G|----------------------------------------------------------------|
D|----------------------------------------------------------------| 
A|---------------4-4-4-------------------------4-4-3------4-3-----|
E|-2-2-2--4-4-4---------6-6-6----2-2-2--4-4-4---------6-6-----6-4-|


[Outro]

G|----------------------------------------------------------------|
D|----------------------------------------------------------------| 
A|---------------4-4-4-------------------------4-4-3------4-3-----|
E|-2-2-2--4-4-4---------6-6-6----2-2-2--4-4-4---------6-6-----6-4-|



************************************

| x  Dead note
| /  Slide up
| \  Slide down

************************************

            
            
Suggest correction
Creating personal tab
Creating personal tab
You can edit any tab online and save it as your Personal.

You can edit, replace or remove any tab part or add personal notes – all changes will be seen only by you.

Personal tabs can be accessed anytime from any device, even offline.
Learn more »
comments
print report bad tab
5 comments total. Showing first comments.
0 reply
BassKid91 10 Mar 30, 2014 06:41 AM

Would be better if it was a bit more spaced out.

0 reply
Pale_Pilgrim 702 Apr 17, 2014 07:26 PM, edited at 11:27 pm

I tried re-working the way it's written out a bit, I think it helps some...

Bass enters at approximately 0:15 //// x = muted note

Verse
G|-----------------------------------------------------------------------|
D|---------------6-4--------666/8----------------6-4--------666/8-6-8-6--|
A|-12\-------444------6-4-4--------x8p6------444------6-4-4-------------8|
E|-------2-2-----------------------------2-2-----------------------------|

Pre-Chorus
G|------------------------------|
D|------------------------------|
A|-------4--------------4--3----|
E|-2/-4-----6\-2/-4--4-------6\-|

Chorus
G|--------------------------------------------------------------------|
D|---------6-4---------666/8-8-6------------6-4--------666/8----------|
A|-----4x4------6-4-4------------8------4x4------6-4-4-------6-8-6----|
E|-2-2------------------------------2-2----------------------------8-6|

G|-------------------------------------------------------------|
D|-------------------------------------------------------------|
A|---------------4-4-4~~----43------------------4-4-3~~----43--|
E|-2-2-2~~4-4-4~~-------6-6---64--2-2-2~~4-4-4~~-------6-6---64|

Instrumental break and Verse
G|--------------------------------------------------------------|
D|---------6-4---------666/8--8-x6----------6-4-------666/8-8--6|
A|-----444------6-4-4-------------------444-----6-4-4-----------|
E|-2-2------------------------------2-2-------------------------|

G|-------------------------------------------------------------|
D|---------6-4---------666/8--8-x6----------6-4-------666/8----|
A|-----444------6-4-4-------------------444-----6-4-4----------|
E|-2-2------------------------------2-2------------------------|

G|---------------------------------------|
D|---------------6-4---------666/8-------|
A|-12/-------444------6-4-4--------x8p6--|
E|-------2-2-----------------------------|

Repeat Pre-Chorus

Repeat Chorus

During instrumental break / Guitar solo
G|--------------------------------------------------------------|
D|---------6-4---------666/8--8-x6----------6-4-------666/8-8--6|
A|-----444------6-4-4-------------------444-----6-4-4-----------|
E|-2-2------------------------------2-2-------------------------|

G|---------------------------------------------------------------|
D|---------6-4---------666/8--8-x6----------6-4-------666/8-8-6--|
A|-----444------6-4-4-------------------444-----6-4-4-----------6|
E|-2-2------------------------------2-2--------------------------|

***No bass for about 14 seconds, then...***

Repeat Chorus

Outro
G|-------------------------------------------------------------|
D|-------------------------------------------------------------|
A|---------------4-4-4~~----43------------------4-4-3~~----43--|
E|-2-2-2~~4-4-4~~-------6-6---64--2-2-2~~4-4-4~~-------6-6---64|

0 reply
MetalFrancis 1,335 Jul 03, 2014 12:30 AM

Verse
G|--------------------------------------------------------------------------|
D|----------444/6--6-4-------666/8------------444/6--6-4-------666/8-6-8-6--|
A|-12\-----------------6-4--4-------x8p6-----------------6-4--4------------8|
E|-------2-2-----------------------------2-2--------------------------------|

I think the main verse should sound like this

guest
You may want to rate the tab now too:
select rating
Wanna post a correction for this tab? Suggest correction