Oops, an error
Loading. Please wait.

Bull Ride Chords

316 views 30 this week
no commentswrite comment
1 2 3 4 5
2 more votes to show rating
add to favorites
launch autoscroll
font size
0
reset
transpose
0
reset
display chords
guitar tuner
Autoscroll
slow
fast
+/-
esc
set tempo
stop
Help us to improve Ultimate-Guitar.com Take our survey!
×
Author
Difficulty
intermediate
Chord diagrams:
For verses:

   Ab  Fm Bbm Cm
e|-4---1---6---8-|
B|-4---1---6---8-|
G|-5---1---6---8-|
D|-6---2---8--10-|
A|-6---2---8--10-|
E|-x---1---x---x-|

For chorus:
   Ab Bbm  Ab
e|-4---6---8---|
B|-4---6---9---|
G|-5---6---8---|
D|-6---8---10--|
A|-6---8---11--|
E|-x---6---x---|

for the break:
   Ab  G  Ab
e|-4---7---8---|
B|-4---8---9---|
G|-5---7---8---|
D|-6---9---10--|
A|-6---10--11--|
E|-x---x---x---|

[Verse 1]
Ab        Fm      Bbm         Cm  Ab Fm Bbm Cm         
All night we ride up and down A1A
        Ab          Fm         Bbm          Cm    Ab Fm Bbm Cm  
Oh, the boys in the back, man, they got the Tanqueray
Ab        Fm          Bbm            Cm        Ab Fm Bbm Cm  
Sunlight, beach life, she's got this Latin body
                Ab          Fm        Bbm             Cm        Ab  Fm  
I'll wear those legs like a gas mask, things move too fast they say
Bbm  Fm
Oh they say

[Chorus 1]
Ab  Bbm  

Ab                 Ab  Bbm   
It's just Bull Ride 
Ab                 Ab  Bbm 
It's out of control
Ab                 Ab  Bbm 
It's just Bull Ride
Ab                 Ab  Bbm 
Oh Oh, It's out of control

[Bridge 1]
e|---------10----10---10-----10--|
B|--10--12-----9----8----7-6-----|
G|-------------------------------|
D|-------------------------------|
A|-------------------------------|
E|-------------------------------|

[Verse 2]
Ab        Fm       Bbm             Cm  Ab Fm Bbm Cm   
Twilight, skyline, high up on that MDMA
      Ab        Fm          Bbm        Cm          Ab    Fm Bbm Cm  
Oh my Future so bright man, you know I got to wear shades
Ab         Fm         Bbm             Cm           Ab    Fm Bbm Cm  
Moonlight, goodnight, she's got her hair in french braids
   Ab         Fm           Bbm             Cm    Ab Fm Bbm Cm  
A little fake choke choke, never hurt nobody
G#m Bbm  

[Chorus 2]
Ab                 Ab  Bbm   
It's just Bull Ride 
Ab                 Ab  Bbm 
It's out of control
Ab                 Ab  Bbm 
It's just Bull Ride
Ab                 Ab  Bbm 
Oh Oh, It's out of control

[Bridge 2]
Ab           Fm  
Looking out, looking out
Bbm         Cm
For Euphoria
    Ab           Fm  
I'm Looking out, looking out
    Bbm         Cm
For Crown Victorias
Ab           Fm  
Looking out, looking out
Bbm        Cm
Oh Euphoria
Ab           Fm  
I'm looking out of my rear view window

[Break]
(First Ab is 4th bar E form, G played from 7th bar with C form, then to Ab 8th bar with C form)
Ab       G     Ab
The suns rising
Ab       G     Ab
The suns rising

[Outro]
Ab Fm Bbm Cm
  Ab           Fm       Bbm        Cm
I hope I don't waste it getting to wasted
  Ab           Fm       Bbm        Cm
I hope I don't waste it getting to wasted
  Ab           Fm       Bbm        Cm
I hope I don't waste it getting to wasted

e|---------10----10---10-----10-------|
B|--10--12-----9----8----7-6------10--|
G|------------------------------------|
D|------------------------------------|
A|------------------------------------|
E|------------------------------------|
Suggest correction
Give kudos to tab author, rate the tab!
1 2 3 4 5
comments
print report bad tab
guest
You may want to rate the tab now too:
select rating
Wanna post a correction for this tab? Suggest correction