Oops, an error
Loading. Please wait.

Hideaway chords

154 views 1 this week
1 commentread comment
1 2 3 4 5
3 more votes to show rating
add to favorites
×
Save as Personal and add changes to this tab that will be seen only by you. Learn more ›
×
You can save this tab as Personal to edit and correct it or add notes. All changes will be seen only by you. Learn more »
launch autoscroll
font size
0
reset
transpose
0
reset
simplify chords
display chords
guitar tuner
edit
Autoscroll
slow
fast
+/-
esc
set tempo
stop
About this tab version
Choruses are tabbed and the verses are written as chords. Was this info helpful? Yes No
Strumming Are these strumming patterns correct? Yes No
Verse 118 bpm
1
 
&
 
2
 
&
 
3
 
&
 
4
 
&
 
Listen
Chorus 118 bpm
1
&
2
&
3
&
4
&
5
&
6
&
7
&
8
&
9
&
10
&
11
&
12
&
13
&
14
&
15
&
16
&
Listen
(Capo 2nd Fret)

[Verse 1]
Em
Do you, do you, do you
Get sad and lonely?
G
That's what, that's what, that's what
Somebody said to me
       C         G
Well I do, I do
Em
She needs to know that there are tears behind these eyes
G
We've taken off our clothes, let's take off our disguise
         C       G
It takes two, two

[Pre-Chorus]
Em
Love like nirvana
               Em  Em/F#
Fly high like Superman
G
Don't mask the monster
                                C     Am
Why can't we tell ourselves the truth
                             Em
Spill all our secrets in the room
Woah, oh, oh

[Chorus]
     C       Em9    Em     Em/F#   G        G     C       Em9
e|---0--------0-----0--------0-----3--------3-----0--------0-------------|
B|---1--------3-----0--------0-----0--------0-----1--------3-------------|
G|---0--------0-----0--------0-----0--------0-----0--------0-------------|
D|---2--------4-----2--------2-----0--------0-----2--------4-------------|
A|---3--------5-----2--------0-----2--------2-----3--------5-------------|
E|---x--------x-----0--------2-----3--------x-----x--------x-------------| x4

It's you, you're my saving grace
My hideaway and
You, you're my sweetest taste
My hideaway
It's you, you're my saving grace
My hideaway and
You, you're my sweetest taste
My hideaway

[Verse 2]
Em
We've all got something that bumps in the night
G                                             C              G
It's always loneliest before the light shines through, through
Em
The city's burning but we play pretend
G                                                     C       G
It's hard to feel when your back's in the wind out of view, view

[Pre-Chorus]
Em
Love like nirvana
               Em  Em/F#
Fly high like Superman
G
Don't mask the monster
                                C     Am
Why can't we tell ourselves the truth
                             Em
Spill all our secrets in the room
Woah, oh, oh

[Chorus]
     C       Em9    Em     Em/F#   G        G     C       Em9
e|---0--------0-----0--------0-----3--------3-----0--------0-------------|
B|---1--------3-----0--------0-----0--------0-----1--------3-------------|
G|---0--------0-----0--------0-----0--------0-----0--------0-------------|
D|---2--------4-----2--------2-----0--------0-----2--------4-------------|
A|---3--------5-----2--------0-----2--------2-----3--------5-------------|
E|---x--------x-----0--------2-----3--------x-----x--------x-------------| x4

It's you, you're my saving grace
My hideaway and
You, you're my sweetest taste
My hideaway
It's you, you're my saving grace
My hideaway and
You, you're my sweetest taste (oh)
(My hideaway)

[Bridge]
Em     G      D      C
Ay, ay, ay, ay-ay, ayy (my hideaway)
Em     G      D      C
Ay, ay, ay, ay-ay, ayy (my hideaway)

Em     G      C      Am
Em     G      C      Am

[Chorus]
     C       Em9    Em     Em/F#   G        G     C       Em9
e|---0--------0-----0--------0-----3--------3-----0--------0-------------|
B|---1--------3-----0--------0-----0--------0-----1--------3-------------|
G|---0--------0-----0--------0-----0--------0-----0--------0-------------|
D|---2--------4-----2--------2-----0--------0-----2--------4-------------|
A|---3--------5-----2--------0-----2--------2-----3--------5-------------|
E|---x--------x-----0--------2-----3--------x-----x--------x-------------| x6

It's you, you're my saving grace
My hideaway and
You, you're my sweetest taste
My hideaway
It's you, you're my saving grace
My hideaway and
You, you're my sweetest taste
My hideaway
It's you, you're my saving grace
(My hideaway and)
You, you're my sweetest taste
My hideaway

            
            
Suggest correction
Creating personal tab
Creating personal tab
You can edit any tab online and save it as your Personal.

You can edit, replace or remove any tab part or add personal notes – all changes will be seen only by you.

Personal tabs can be accessed anytime from any device, even offline.
Learn more »
Give kudos to tab author, rate the tab!
1 2 3 4 5
comments
print report bad tab
1 comment total.
0 reply
sladeneilson12 25 Jun 24, 2017 06:01 PM

can you do a tab for celebrate the reckless? Thank you

guest
You may want to rate the tab now too:
select rating
Wanna post a correction for this tab? Suggest correction