Oops, an error
Loading. Please wait.

Redemption Tab

286 views 1 this week
no commentswrite comment
1 2 3 4 5
3 more votes to show rating
add to favorites
launch autoscroll
font size
0
reset
how to read this tab
guitar tuner
Autoscroll
slow
fast
+/-
esc
set tempo
stop
Help us to improve Ultimate-Guitar.com Take our survey!
×
Author
Difficulty
novice
 And the story has reached the heavens/ And my soul returned to me
Great bards have sung my memory / And my story reached thee.

(Rítmica)

1.-------------------------------------------------------|
2.-------------------------------------------------------|
3.--------------------------------------------------2-4--|
4.--------------------------------------------------0-2--|
5.-7---7-7-7---7-7-2---2-2-2---2-2-4---4-4-4---4-4-------|
6.-5---5-5-5---5-5-0---0-0-0---0-0-2---2-2-2---2-2-------|

1.-------------------------------------------------------|
2.-------------------------------------------------------|
3.-------------------------------------------------------|
4.-------------------------------------------------------|
5.-7---7-7-7---7-7-2---2-2-2---2-2-4---4-4-4---4-4-------|
6.-5---5-5-5---5-5-0---0-0-0---0-0-2---2-2-2---2-2-4-0-5-|

(Solo intro)

1.-12-----------------------------------------------------|
2.-------------12---------14------------------------------|
3.----14-13-14---14-13-14----14-13-14---14-13-14----14-13-|
4.------------------------------------14---------14-------|
5.--------------------------------------------------------|
6.--------------------------------------------------------|


1.-------------------------------------------------------|
2.-----------------------------------15-14-12------------|
3.-14-13-14----14-13-14-16-14-13-14-----------14---------|
4.----------16-------------------------------------------|
5.-------------------------------------------------------|
6.-------------------------------------------------------|


1.-12-----------------------------------------------------|
2.-------------12---------14------------------------------|
3.----14-13-14---14-13-14----14-13-14---14-13-14----14-13-|
4.------------------------------------14---------14-------|
5.--------------------------------------------------------|
6.--------------------------------------------------------|


1.-------------------------------------------------------|
2.-------------------------------------------------------|
3.-14-13-14----14-13-14-16-14-13----14-------------------|
4.----------16-------------------14----------------------|
5.-------------------------------------------------------|
6.-------------------------------------------------------|


1.--------------------------------------------------------|
2.-17---------17---------19---------19---------21---------|
3.---18-16-18---18-16-18---18-16-18---18-16-18---18-16-18-|
4.--------------------------------------------------------|
5.--------------------------------------------------------|
6.--------------------------------------------------------|


1.------------17----------19------------------------------|
2.-21------------19-17-19----21-19-21-17------------------|
3.---18-16-18---------------------------------------------|
4.--------------------------------------------------------|
5.--------------------------------------------------------|
6.--------------------------------------------------------|
1.--------------------------------------------------------|
2.-17---------17---------19---------19---------21---------|
3.---18-16-18---18-16-18---18-16-18---18-16-18---18-16-18-|
4.--------------------------------------------------------|
5.--------------------------------------------------------|
6.--------------------------------------------------------|



1.------------19----------17-----------------------------|
2.-21------------19-17-19--------------------------------|
3.---18-16-18--------------------------------------------|
4.-------------------------------------------------------|
5.-------------------------------------------------------|
6.-------------------------------------------------------|


Alma, your eyes are diamonds in the night

1.---------------------------------------------|
2.---------------------------------------------|
3.---------------------------------------------|
4.---------------------------------------------|
4.-------------2-4-----------------------------|
5.-7---7-7-7---0-2-2---------------------------|
6.-5---5-5-5-------0-0-2-0-4-0-5-0-4-0-5-4-0---|


Alma, your heart is running to the light.

1.-------------------------------------------------------|
2.-------------------------------------------------------|
3.-------------------------------------------------------|
4.-------------------------------------------------------|
4.-------------------------------------------------------|
5.-7---7-7-7---7---9-9---7---9-9-------------------------|
6.-5---5-5-5---5---7-7---5---7-7-0-2-0-4-0-5-0-4-0-5-4-0-|

Si-fa#-re-mi

 And say goodbye, and say goodbye to the magic sword (1ª vez)
I thank you mighty sorcerer for the words that saved my mind(2ª)

Si-fa#-re

 And return her to the forest of the elven lord.(1ª vez)
I thank you for your guidance, your eyes when I was blind.(2ª)
1.----------------------------------|
2.----------------------------------| (Notarás que este riff no es
3.----------------------------------|        exactamente igual.)
4.----------------------------------|
5.----------------------------------|
6.- 0-2-0-4-0-5-0-4-0-5-4-0---------|

La-mi-re-si

And the story has reached the heavens/ And my soul returned to me

La-mi-re-la

Great bards have sung my memory / And my story reached thee.

(Repetimos desde el principio, cambiando la letra donde lo indica)






(Solo, aviso que es una interpretación bastante personal)

1.-----------------------------------------------------------|
2.-14-14-12----12--------------------------12-------12----12-|
3.----------14----13--------13-14-13----14---13-14-----14----|
4.-------------------14--14----------14----------------------|
5.-----------------------------------------------------------|
6.-----------------------------------------------------------|

1.---------------------------------------------------------|
2.-14-14-12----12----------------15-14-12------------------|
3.----------14----13---------13------------14-13-14--------|
4.-------------------14---14-------------------------------|
5.---------------------------------------------------------|
6.---------------------------------------------------------|

1.---------------10---12-10----10-12---10---------------10-|
2.-10---10-12-14------------14-------14---12-14-12-10-9----|
3.---------------------------------------------------------|
4.---------------------------------------------------------|
5.---------------------------------------------------------|
6.---------------------------------------------------------|

1.---------------------------------------------------------|
2.-12-14-12-10---9-10-12-10-9------------------------------|
3.----------------------------11-9-7-6-6-7-9-7-6-----------|
4.-----------------------------------------------9-7-6-7-6-|
5.---------------------------------------------------------|
6.---------------------------------------------------------|

1.-22-21-19----21-19--------------------------------------|
2.----------22-------22-21-19----21-19--------------------|
3.----------------------------21-------21-19-18----19-18--|
4.----------------------------------------------21--------|
5.--------------------------------------------------------|
6.--------------------------------------------------------|

1.----------------------------------------------------------|
2.----------------------------------------------------------|
3.----------------------------------------------------------|
4.-21-19-18----19-18----------------------------------------|
5.----------21-------21-19-17-19-17----17-------------------|
6.----------------------------------21----21-19-17-19-17-16-|

1.----------------------------------------------------------|
2.----------------------------------------------------------|
3.-------------------------------------------16-18----16-18-|
4.-------------------------16-18----16-18-19-------19-------|
5.-------16-17----16-17-19-------19-------------------------|
6.-17-19-------19-------------------------------------------|

1.--------------------------------------------------------|
2.--------------------------------------------------------|
3.-19-18-16----18-16--------------------------------------|
4.----------19-------19-18-16----16-18-19-----------------|
5.----------------------------19--------------------------|
6.--------------------------------------------------------|


perchintabs.blogspot.com
Suggest correction
Give kudos to tab author, rate the tab!
1 2 3 4 5
comments
print report bad tab
guest
You may want to rate the tab now too:
select rating
Wanna post a correction for this tab? Suggest correction