Oops, an error
Loading. Please wait.

La Puerta Del Colegio Bass

by Magneto
29 views 1 this week
no commentswrite comment
1 2 3 4 5
3 more votes to show rating
add to favorites
launch autoscroll
font size
0
reset
guitar tuner
×
Best way to learn
"La Puerta Del Colegio"
Autoscroll
slow
fast
+/-
esc
set tempo
stop
00:29
En la puerta
E|--4----|-----|---4-|-4---|-------|---3-|-1-|
A|---4-6-|-6-3-|-3---|---1-|-2---3-|-3---|---|
D|-------|-----|-----|-----|-------|-----|---|
G|-------|-----|-----|-----|--1h4--|-----|---|

Yo nervioso
E|--1--|-4-3-|-33--|--4-|----|
A|---1-|-----|---3-|-3--|-1--|
D|-----|-----|-----|----|----|
G|-----|-----|-----|----|----|

Cada puerta
E|----|-----|---4-|-4-----|
A|----|---3-|-3---|---1-1-|
D|--1-|-1---|-----|-------|
G|----|-----|-----|-------|

Cada puerta
E|----|-----|---4-|-4-----|-------|----|
A|----|---3-|-3---|--2----|-3-1-0-|-1--|
D|--1-|-1---|-----|-------|-------|----|
G|----|-----|-----|---1h4-|-------|----|
se repite dos veces y luego

E|----|-4-|----|
A|--1-|---|-1--|
D|----|---|----|
G|----|---|----|

Te sentabas
E|------|-----|---4-|-4---|---0-|
A|--4/6-|-6-3-|-3---|---1-|-4---|
D|------|-----|-----|-----|-----|
G|------|-----|-----|-----|-----|

Cuando el año
E|----6--|-----|-3h4------4-|-4---|--------|
A|--6--6-|-6-3-|----3h4-3---|---1-|-4------|
D|-------|-----|------------|-----|--4/11--|
G|-------|-----|------------|-----|--------|

pronto volvere
E|----|---3-|-1-|-1---4-3-|-3--|--1-|----|
A|--3-|-3---|---|---1-----|--3-|-3--|-1--|
D|----|-----|---|---------|----|----|----|
G|----|-----|---|---------|----|----|----|

Cada puerta
E|----|-----|---4-|-4-----|
A|----|---3-|-3---|---1-1-|
D|--1-|-1---|-----|-------|
G|----|-----|-----|-------|

Cada puerta
E|----|-----|---4-|-4-----|-------|----|
A|----|---3-|-3---|--2----|-3-1-0-|-1--|
D|--1-|-1---|-----|-------|-------|----|
G|----|-----|-----|---1h4-|-------|----|

Cada puerta
E|----|-----|---4-|-4-----|
A|----|---3-|-3---|---1-1-|
D|--1-|-1---|-----|-------|
G|----|-----|-----|-------|

Cada puerta
E|----|-----|---4-|-4-----|---|-----|---|-----|---1-|----|
A|----|---3-|-3---|--2----|-3-|-3-2-|-1-|-1-0-|-00--|-1--|
D|--1-|-1---|-----|-------|---|-----|---|-----|-----|----|
G|----|-----|-----|---1h4-|---|-----|---|-----|-----|----|

Final
E|----|-----|---4-|---|----|
A|--6-|-6-3-|-3---|-1-|-6--|
D|----|-----|-----|---|----|
G|----|-----|-----|---|----|

atte. miauricio gatolar
Suggest correction
Give kudos to tab author, rate the tab!
1 2 3 4 5
comments
print report bad tab
guest
You may want to rate the tab now too:
select rating
Wanna post a correction for this tab? Suggest correction