Oops, an error
Loading. Please wait.

La Puerta Del Colegio Tab

21 views 1 this week
no commentswrite comment
1 2 3 4 5
3 more votes to show rating
add to favorites
launch autoscroll
font size
0
reset
how to read this tab
guitar tuner
Autoscroll
slow
fast
+/-
esc
set tempo
stop
Help us to improve Ultimate-Guitar.com Take our survey!
×
ESTA ROLA TIENE VARIOS TRUCOS:

PARA TOCARLA NECESITAN CAPO EN EL TERCER TRASTE O SINO EN EL PRIMER TRASTE Y SI NO 
PUES HACER CEJILLAS QUE ESTARIA EN EL TONO DE D#

APARTE EN EL ULTIMO CORO DONDE DICE 
?DONDE PUEDO IR A LLORAR A SOÑAR A ESPERAR? TODO ESOS ACORDES LOS PUEDEN 
HACER CON BAJEOS Y CONVERTIRLOS A TONOS 5

POR EJEMPLO:

A5 G5 F#5 F5 Em D5 Y G5 (SOLO POR SI SON DOS GUITARRAS)

ALGUNA DUDA O COMENTARIO POR FAVOR ESCRIBAN A 

alfa_omega22@ GRACIAS


INTRO
E|-----3------3-----------3-----3---------------------|
B|-0-1----0-1---------0-1---0-1------1----------------|
G|---------------------------------0------------------|
D|----------------------------------------------------|
A|-3-3-3--3-3-3--3-2--0-0---0-0-----------------------|
E|----------------------------------------------------|

E|-5-3-3-1-1-0-0--------------------------------------|
B|---------------3-3-1-0-3/5-3------------------------|
G|----------------------------------------------------|
D|----------------------------------------------------|
A|----------------------------------------------------|
E|-1-1-1-1-1-1-1-1------------------------------------|

C                      Em                 **
Amanece un nuevo dia, otra noche sin dormir
F                             G
recordando los momentos de mi vida junto a ti
C                                 Em          **
en la puerta de un colegio, donde yo te conoci
F                               E
un tropiezo y unos libros que cayeron 
     E7  Esus E    E7 Am             **           Dm7 G G**
para que mi---ran-do--nos los dos, hablaramos sin voz
                 C        **              F        
yo nervioso y tu apenada, sentimos que el amor 
G    
se despertaba

C             Am7          F
Cada puerta de un colegio es 
    G
culpable de nuestro amor
C             Am7          F
Cada puerta de un colegio es 
   E        E7       Am   Am7/G
la que me reuerda a ti 
   D     D/F#        G  F  G  G*
ahora que no estas aqui

C             Am7          F
Cada puerta de un colegio es 
    G           
como una mirada atras 
C             Am7          F
cada puerta de un colegio es
E               E7   Am  Am7/G
donde puedo ira a  llorar
    D        D/F#     G   F  G  G*
pensando que estas detras

C 
Te sentabas  A [ch]E[/ch] lado 
       Em
en las clases de ingles

F
entre risas y caricias 
     G
planeabamos que hacer

C
cuando el año se acababa 
      Em            **
me dijiste escuchame
F
tengo que cambiar de curso
     E
y me ire muy lejos
E7  Esus E   E7  Am   
Pe--ro   pronto  volvere 
   **            Dm7   G G* 
el mundo se me hundio
               C
me rogaste que te esperara 
**              F
pero es tan duro amor
G
te echo de menos

C             Am7          F
Cada puerta de un colegio es 
    G
culpable de nuestro amor
C             Am7          F
Cada puerta de un colegio es 
   E        E7       Am   Am7G
la que me reuerda a ti 
   D     D/F#        G  F  G  G*
ahora que no estas aqui

C             Am7          F
Cada puerta de un colegio es 
    G           
como una mirada atras 
C             Am7          F
cada puerta de un colegio es
E               E7   Am  Am7/G  F#5 F  Em     Dm7  G 
donde puedo ira a  llorar       a soñar   a esperar te hecho de menos


E|-----3------3-----------3-----3---------------------|
B|-0-1----0-1---------0-1---0-1------1----------------|
G|---------------------------------0------------------|
D|----------------------------------------------------|
A|-3-3-3--3-3-3--3-2--0-0---0-0-----------------------|
E|----------------------------------------------------|

E|-5-3-3-1-1-0-0----------------13-11-----------------|
B|---------------3-3-1-0-3/5-3-----11-----------------|
G|----------------------------------------------------|
D|----------------------------------------------------|
A|----------------------------------------------------|
E|-1-1-1-1-1-1-1-1------------------------------------|


      E A D G B E

C      3 3 2 0 1 0
Am7      0 0 2 0 1 0
F      1 3 3 2 1 1
G      3 2 0 0 3 3
G*      3 2 0 0 0 0
G**      3 2 0 0 3 0
**      0 2 2 0 1 0
Esus      0 2 2 2 0 0
E7      0 2 0 1 0 0
E      0 2 2 1 0 0
Am7/G      3 X 2 0 1 0
F#5      2 4 4 X X X
A5      5 7 X X X X
G5      3 5 X X X X
F5      1 3 X X X X
Em      0 2 2 0 0 0
D5      X 5 7 X X X
Dm7      0 0 0 2 1 1
D/F#      2 0 0 2 3 3
Suggest correction
Give kudos to tab author, rate the tab!
1 2 3 4 5
comments
print report bad tab
guest
You may want to rate the tab now too:
select rating
Wanna post a correction for this tab? Suggest correction