Oops, an error
Loading. Please wait.

Mal Herido Bass

by Magneto
44 views 3 this week
no commentswrite comment
1 2 3 4 5
3 more votes to show rating
add to favorites
launch autoscroll
font size
0
reset
guitar tuner
×
Best way to learn
"Mal Herido"
Autoscroll
slow
fast
+/-
esc
set tempo
stop
La mejor cancion
00:46
Llore tu recuerdo
E|-------|------|-------|------|--------|
A|--3-33-|-3-33-|-32-22-|-3-33-|--------|
D|-------|------|-------|------|--------|
G|-------|------|-------|------|-5-4/0--|

y hoy
E|-------|-1-11-|--------|-3-33-|-3--|
A|--0-00-|------|--------|------|----|
D|-------|------|-320-00-|------|----|
G|-------|------|--------|------|----|

Si piensas que
E|-------|------|-----|---------|-----|-----4-|-4------|
A|--3-33-|-2h32-|-2-3-|---------|-0-2-|-2-0---|---0-2--|
D|-------|------|-----|---------|-----|-------|--------|
G|-------|------|-----|-4h5-4-2-|-----|-------|--------|

Si piensas
E|-------------|-----|---------|-----|---4-|-4------|
A|--3----------|-2-3-|-2-3-2-0-|-0-2-|-2---|---0-2--|x2
D|-------------|-----|---------|-----|-----|--------|
G|----3h5555-4-|-----|---------|-----|-----|--------|


E|-------------|-----|---------|-----|---4-|---|-------|---|----|
A|--3----------|-2-3-|-2-3-2-0-|-0-2-|-2---|-0-|-------|---|-0--|
D|-------------|-----|---------|-----|-----|---|-2-----|-2-|----|
G|----3h5555-4-|-----|---------|-----|-----|---|---2-4-|---|----|

atte. miauricio gatolar
Suggest correction
Give kudos to tab author, rate the tab!
1 2 3 4 5
comments
print report bad tab
guest
You may want to rate the tab now too:
select rating
Wanna post a correction for this tab? Suggest correction