Oops, an error
Loading. Please wait.

Hard To Love A Man tab

533 views 3 this week
no commentswrite comment
1 2 3 4 5
1 last vote to show rating
add to favorites
×
Save as Personal and add changes to this tab that will be seen only by you. Learn more ›
×
You can save this tab as Personal to edit and correct it or add notes. All changes will be seen only by you. Learn more »
launch autoscroll
font size
0
reset
how to read this tab
guitar tuner
edit
Autoscroll
slow
fast
+/-
esc
set tempo
stop
Band: Magnolia Electric Co 
Song: Hard to love a man
Album: Hard to love a man (EP)
Tabber: Andrew Biles

Standard tuning

|-------------5-----5-----------0-----3p0---------
|----5--5p0------------------3-----3------------0--
|-------------------------------------------------
|-------------------------------------------------
|-------------------------2-----2-----------------
|-0-----0-----3-----3-----------------0-----0-----

|-------0--7--5-----5--5-----0-----0--0-----------
|----5--------------------3-----3--------0-----0--
|-------------------------------------------------
|-------------------------------------------------
|-------------3-----3-----2-----2-----------------
|-0-----0-----------------------------0-----0-----

|-------------5-----5-----------0-----3p0------0--
|----5--5p0------0-----0-----3-----3--------0-----
|-------------------------------------------------
|-------------------------------------------------
|-------------------------2-----2-----------------
|-0-----0-----3-----3-----------------0-----0-----

Em, A, G

Em, G, Bm, Em (x3) Em, A, G


Em     G              Bm       Em
It was hard to love a man like you
    G                Bm        Em
Goodbye was half the words you knew
              G           Bm        Em
while you was waiting for me not to call
       G   Bm   Em     A    G
I sent my love, I sent my love


Em   G                 Bm       Em
In a life built out of only goodbyes
              G        Bm      Em
Is there even room for you to try
             G           Bm         Em
while you was waiting for me not to call
       G   Bm   Em     A    G
I sent my love, I sent my love


Em     G              Bm       Em
It was hard to love a man like you
    G            Bm       Em
Goodbye was just what you do
     G                Bm        Em
In a life built out of only goodbyes
              G        Bm   Em            A        G
Is there even room for you? Is there even room for you?


Em            G           Bm         Em
While you was waiting for me not to call
       G   Bm   Em     A    G
I sent my love, I sent my love

            
            
Suggest correction
Creating personal tab
Creating personal tab
You can edit any tab online and save it as your Personal.

You can edit, replace or remove any tab part or add personal notes – all changes will be seen only by you.

Personal tabs can be accessed anytime from any device, even offline.
Learn more »
Give kudos to tab author, rate the tab!
1 2 3 4 5
comments
print report bad tab
guest
You may want to rate the tab now too:
select rating
Wanna post a correction for this tab? Suggest correction