Oops, an error
Loading. Please wait.

31 De Febrero Tab

version 2
version 2

Whole song

936 views 1 this week
no commentswrite comment
1 2 3 4 5
please rate
add to favorites
launch autoscroll
font size
0
reset
how to read this tab
guitar tuner
Autoscroll
slow
fast
+/-
esc
set tempo
stop
Help us to improve Ultimate-Guitar.com Take our survey!
×
Intro

(primera guitarra)
      C             F            C              F
e|------------|------------|------------|---------------|
B|------------|------------|------------|--------1------|
G|---------0--|---------0--|---------0--|------2---2----|
D|--2----2----|--3----3----|--2----2----|----3-------3--|  x4
A|--3--3------|--3--3------|--3--3------|--3------------|
E|------------|------------|------------|---------------|


(entra segunda guitarra al 2do tiempo de la primera)
      C           D         E           G
e|----------|----------|----------|-------------|
B|----------|----------|----------|-------------|
G|--5--555--|--7--777--|--9--999--|--12--9--12--|
D|--x--xxx--|--x--xxx--|--x--xxx--|---x--x---x--|  2x
A|--3--333--|--5--555--|--7--777--|--10--7--10--|
E|----------|----------|----------|-------------|



(esta es la primer parte, asi va la mayoria de las estrofas)
        C              Am           Em             F
e|--------------|-------------|-------------|--------------|
B|--------------|-------------|-------------|--------------|
G|--------------|-------------|--0--0--0--0-|--2--2--2--2--|
D|---2--2--2--2-|--2--2--2--2-|-2--2--2--2--|-3--3--3--3---|
A|--3--3--3--3--|-0--0--0--0--|-------------|--------------|
E|--------------|-------------|-------------|--------------|

e|-------------|--------------|-------------|--------------|
B|--1---1---1--|--1---1---1---|--0---0---0--|---1---1---1--|
G|---0---0---0-|---2---2---2--|---1---1---1-|----2---2---2-|
D|----2---2----|----2---2-----|----2---2----|-----3---3----|
A|-------------|--------------|-------------|--------------|
E|-------------|--------------|-------------|--------------|




 tengo varias melodias que escribi
 ninguna habla sobre ti
 y no, no le cambiare la letra porque tu no estas
 y no, no me cansas tanto dolor y tristeza

 C     Am      Em     Am      F
sabes cuantas cartas te escribi
   C     Am    Em   Am       F
pero tu direccion yo ya perdi

    C                      Am
y evitar aquello que pudo pasar
                     F
asi no habra que olvidar
           G
solo imaginar
                C
alcanzare a cantar
                         Am
y chance alguien me escuchara
                    F                G
quisas solo un pajarillo fuera a cantar

ALGUNA DUDA O MAMADA DE RIATA MI CORREO 
fabri_1608@HOTMAIL.COM XD
comments
We did not receive enough feedback on this tab! Please rate:
print report bad tab
1 2 3 4 5
I want to post or [tab]
guest
You may want to rate the tab now too:
select rating
Please do not post tabs as comments. Select "correction" instead!