Oops, an error
Loading. Please wait.

Desde Mi Cielo Tab

version 1
version 1

Whole song

Interactive

70,064 views 21 this week
3 commentsread comments
1 2 3 4 5
x 12
add to favorites
launch autoscroll
font size
0
reset
how to read this tab
guitar tuner
Autoscroll
slow
fast
+/-
esc
set tempo
stop
Help us to improve Ultimate-Guitar.com Take our survey!
×
Difficulty
intermediate
Esta es mi primera tablatura, la hice con la ayuda de un amigo y su hermano ( Aldo,
Sin esa ayuda no hubiera sido posible esta tablatura es la mejor y mas completa que hay
ahora. Los Solos son los originales, no esas copias baratas y desafinadas que andan por 
(Los arregle yo).Un Saludo para todos mis Amigos, que se cuiden. Y un saludo en especial
mis Amigos mas cercanos y para mi mejor Amiga. Por si acaso soy el Nico (Nicolás Vásquez).

Grupo: Mägo de Oz
Álbum: Gaia 2
Canción: Desde Mi Cielo

Desde Mi Cielo:

[Intro]  Bm F#m G D A
         Bm F#m D Asus4 A

D
 Ahora que está todo en silencio
G                               D
 y que la calma me besa el corazón
              Asus4    A
os quiero decir adiós
D
 porque ha llegado la hora
G                                D
 de que andéis el camino ya sin mi,
                  Asus4  A (Bajo D C# D C# A F#)
hay tanto por lo que vivir
Bm           D            F#m       Bm
 no llores cielo y vuélvete a enamorar
         D            G         A
me gustaría volver a verte sonreír.

         D          G            D
Pero mi vida yo nunca podré olvidarte
   A              Bm                 G         A
y sólo el viento sabe lo que has sufrido por amarme
F#m G  A   D            G               D
hay tantas cosas que nunca te dije en vida
          A          Bm
que eres todo cuanto amo
          G                      Asus4 A
y ahora que ya no estoy junto a ti,

te cuidare desde aquí...

 Solo:
    1:49
e|--------7-9-10-7------10-9-5--------7----7--7--7---5--------5------|
B|----5/7-----------7-----------5-----------------------7------------|
G|-------------------------------------------------------------------|
D|-------------------------------------------------------------------|
A|-------------------------------------------------------------------|
E|-------------------------------------------------------------------|

e|--------7-9-10-7----10-9-5--------10---7---------|-----7—9h10--7---|
B|----5/7-----------7---------5-------------7---10-|-10--------------|
G|-------------------------------------------------|-----------------|
D|-------------------------------------------------|-----------------|
A|-------------------------------------------------|-----------------|
E|-------------------------------------------------|-----------------|

 Acompañamiento Solo:
    Bm      A     G     A           Bm      A     D   A          Bm
e|-------------------------------------------------------------------|
B|-------------------------------------------------------------------|
G|--4-------------------------------4-------------7--------------4---|
D|--4-------7-----5-----7-----------4-------7-----7---7----------4---|
A|--2-------7-----5-----7-----------2-------7-----5---7----------2---|
E|----------5-----3-----5-------------------5---------5--------------|

2:13
D
Sé que la culpa os acosa
G                                  D
y os susurra al oído: “pude hacer más”
                       A
no hay nada que reprochar

 2:29
e|-------------------------------------------------------------------|
B|-------------------------------------------------------------------|
G|---4------------7--------------------------4-----------------------|
D|---4------------7-------------4------------4-----------------------|
A|---2------------5-------------4------------2-----------------------|
E|------------------------------2------------------------------------|

     Bm           D            F#m           Bm
     ya no ay demonios en el fondo del cristal
e-------------------------------------------------------------------|
B-------------------------------------------------------------------|
G------7------------------------------------------------------------|
D------7--------------5--------------7------7------7-7-7-7-7-7-7-7--|
A------5--------------5--------------5------7------7-7-7-7-7-7-7-7--|
E---------------------3--------------5------5------5-5-5-5-5-5-5-5--|
                                              P.M.-------------------|

        D              G              Asus4 A
y solo bebo todos los besos que no te di

e|-------------------------------------------------------------------|
B|-------------------------------------------------------------------|
G|------------7-----------------------7------------------------------|
D|--4--5--7---7----------5------------7------------------------------|
A|--4--5--7---5----------5------------5------------------------------|
E|--2--3--5--------------3-------------------------------------------|
    F# G  A   D          G            D
    pero mi  vida yo nunca podre olvidarte

e|-------------------------------------------------------------------|
B|-------------------------------------------------------------------|
G|----------------4--------------------------------------------------|
D|-7--------------4------------------5---------7---------------------|
A|-7--------------2------------------5---------7---------------------|
E|-5---------------------------------3---------5---------------------|
   A              Bm                 G         A
y solo el viento sabe, lo que as sufrido por amarme

e|-------------------------------------------------------------------|
B|-------------------------------------------------------------------|
G|-------------7----------------------------7------------------------|
D|-4---5--7----7------------5---------------7------------------------|
A|-4---5--7----5------------5---------------5------------------------|
E|-2---3--5-----------------3----------------------------------------|
   F#  G  A    D            G               D
   ay tantas  cosas que nunca te dije en vida

e|-------------------------------------------------------------------|
B|-------------------------------------------------------------------|
G|--------------------4----------------------------------------------|
D|--------7-----------4----------------------------------------------|
A|--------7-----------2----------------------------------------------|
E|--------5----------------------------------------------------------|
          A          Bm
que eres todo cuanto amo

e|-------------------------------------------------------------------|
B|-------------------------------------------------------------------|
G|-------------------------------------------------------------------|
D|--------5---------------------7-----7------------------------------|
A|--------5---------------------5-----7------------------------------|
E|--------3---------------------5-----5------------------------------|
          G                     Asus4 A
y ahora que ya no estoy junto a ti!!!!!.

e|-------------------------------------------------------------------|
B|-------------------------------------------------------------------|
G|-------------------------------------------------------------------|
D|--2------------------------------6------7-------------------2------|
A|--2------------------------------7------7-------------------2------|
E|--0------------------------------9------5-------------------0------|
    E                              C#m    A                   E
     Vivo cada vez que hablais de mi, y muero otra vez si llorais

e|-------------------------------------------------------------------|
B|-------------------------------------------------------------------|
G|-------------------------------------------4-----------------------|
D|------------------------------6------7-----4-----------------------|
A|------------------------------7------7-----2-----------------------|
E|------------------------------9------5-----------------------------|
                                C#m    A     B
te he aprendido al fin a disfrutar, y soy feliz

[Solo 2]
3:39
e|-------------------------------------------------------------------|
B|-----------------7-------------------------------------------------|
G|----------9-8-6------9---6-6/9—-14-14-14-14—-13-11-----------------|
D|-----7-9--------------------------------------------11-11h12p11--9-|
A|-7h9---------------------------------------------------------------|
E|-------------------------------------------------------------------|

e|-------------------------------------------------------------------|
B|-------------------------------------------------------------------|
G|---14--11----14----13--9-----------11/14-14-14-14—-13-11—-11/13----|
D|-----------11-------------9----------------------------------------|
A|-------------------------------------------------------------------|
E|-------------------------------------------------------------------|

e|-------------------------------------------------------------------|
B|---------7--9--10--7-----10--9--5------7--7--7--7--5-----5---------|
G|----4/6---------------6------------4------------------6------------|
D|-------------------------------------------------------------------|
A|-------------------------------------------------------------------|
E|-------------------------------------------------------------------|

e|-------------------------------------------------------------------|
B|---------7--9--10--7-----10--9--5------10--7-----------------------|
G|----4/6---------------6------------4----------6--9-----------------|
D|-------------------------------------------------------------------|
A|-------------------------------------------------------------------|
E|-------------------------------------------------------------------|

Acompañamiento del Solo 2]
e|-------------------------------------------------------------------|
B|-------------------------------------------------------------------|
G|---------7-------------------------------7-----------------------4-|
D|---4---2-7-2-------4---2-7-2-------4---2-7-2-------4---2-7-2-----4-|
A|---4---2-5-2-------4---2-7-2-------4---2-5-2-------4---2-7-2-----2-|
E|---2---0---0-------2---0-5-0-------2---0---0-------2---0-5-0-------|
     F#m E D E       F#m E A E       F#m E D E       F#m E A E     Bm


    Bm           D            F#m       Bm
     No llores cielo y vuélvete a enamorar

4:29
e|-------------------------------------------------------------------|
B|-------------------------------------------------------------------|
G|-------------------------------------------------------------------|
D|--------------------------5------7-----7------7-7-7-7-7-7-7-7------|
A|--------------------------5------5-----7------7-7-7-7-7-7-7-7------|
E|--------------------------3------5-----5------5-5-5-5-5-5-5-5------|
                                            P.M.---------------------|
            D               G      Asus4 A
nunca me olvides me tengo que marchar

e|-------------------------------------------------------------------|
B|-------------------------------------------------------------------|
G|-----------7-----------------------7-------------------------------|
D|--4--5-7---7----------5------------7-------------------------------|
A|--4--5-7---5----------5------------5-------------------------------|
E|--2--3-5--------------3--------------------------------------------|
    F# G A   D          G            D
    Pero mi vida yo nunca podré olvidarte

e|-------------------------------------------------------------------|
B|-------------------------------------------------------------------|
G|-----------------4-------------------------------------------------|
D|--7--------------4------------------5---------7--------------------|
A|--7--------------2------------------5---------7--------------------|
E|--5---------------------------------3---------5--------------------|
    A              Bm                 G         A
 y solo el viento sabe, lo que as sufrido por amarme

e|-------------------------------------------------------------------|
B|-------------------------------------------------------------------|
G|-------------7----------------------------7------------------------|
D|--4---5--7---7------------5---------------7------------------------|
A|--4---5--7---5------------5---------------5------------------------|
E|--2---3--5----------------3----------------------------------------|
    F#  G  A   D            G               D
    ay tantas cosas que nunca te dije en vida

e|-------------------------------------------------------------------|
B|-------------------------------------------------------------------|
G|-------------------4-----------------------------------------------|
D|--------7----------4-------------5----------------------7-----7----|
A|--------7----------2-------------5----------------------5-----7----|
E|--------5------------------------3----------------------5-----5----|
          A          Bm            G                      Asus4 A
que eres todo cuanto amo y ahora que ya no estoy junto a ti

e|-------------------------------------------------------------------|
B|-------------------------------------------------------------------|
G|------------7-------------------------7----------------------------|
D|--4--5--7---7---------5---------------7----------------------------|
A|--4--5--7---5---------5---------------5----------------------------|
E|--2--3--5-------------3--------------------------------------------|
    F# G  A   D         G               D
   desde mi cielo os arropare en la noche

e|-------------------------------------------------------------------|
B|-------------------------------------------------------------------|
G|-------------------4-----------------------------------------------|
D|-----7-------------4--------------5-------------7------------------|
A|-----7-------------2--------------5-------------7------------------|
E|-----5----------------------------3-------------5------------------|
       A             Bm             G             A
y os acunare en lo sueños y espantare todos los miedos

e|-------------------------------------------------------------------|
B|-------------------------------------------------------------------|
G|------------7-------------------------7----------------------------|
D|--4--5--7---7---------5---------------7----------------------------|
A|--4--5--7---5---------5---------------5----------------------------|
E|--2--3--5-------------3--------------------------------------------|
    F# G  A   D         G               D
   desde mi cielo os esperare escribiendo

e|-------------------------------------------------------------------|
B|-------------------------------------------------------------------|
G|---------------------4---------------------------------------------|
D|-------7-------------4-------------5------------7-----7------------|
A|-------7-------------2-------------5------------5-----7------------|
E|-------5---------------------------3------------5-----5------------|
         A             Bm            G            Asus4 A
no estoy solo pues me cuidan la libertad y la esperanza
Yo nunca os olvidareeeeeeeeeeeeeeeeeeeeeee.

[Intro] Bm F#m G A
        Bm F#m D Asus4 A Bm
Suggest correction
comments
print report bad tab
3 comments total.
0 reply
Jastul 155 Sep 27, 2007 12:17 AM

esta con madre wey!!! los acordes tienen que sen arpegiados, pero eso es facil de sacar, muchas gracias!!! los solos te quedaron con madre, 100% perfectos

0 reply
renevr93 10 Sep 03, 2008 07:37 PM

aun sin arpegios suena bastante bn
no e probado el segundo solo aun
pero el primero suena perfecto
muy buena (y)

0 reply
kenito1829 10 Feb 16, 2013 04:37 PM

los dos solos suenan perfectos muy buen trabajo uno de los tabs mas perfectos que eh visto

guest
You may want to rate the tab now too:
select rating
Wanna post a correction for this tab? Suggest correction