Oops, an error
Loading. Please wait.

El Fin Del Camino Tab

version 1
version 1

Whole song

Interactive

14,600 views 6 this week
no commentswrite comment
1 2 3 4 5
excellent!
x 6
add to favorites
launch autoscroll
font size
0
reset
how to read this tab
guitar tuner
Autoscroll
slow
fast
+/-
esc
set tempo
stop
Help us to improve Ultimate-Guitar.com Take our survey!
×
Contributor
diegoti7 102
El tono de la cancion es el normal, a mi si me suena bien no se si a ustedes tambien...
Alguna queja mailenme diegoti7@hotmail.com

INTRO 
X2

----------------------------------
----------------------------------
-------------------0--------0-----
------7s10-7-----2--------0----0--
----7----------3------3-2---------
--5----------5--------------------

---------------------------------------------
---------------------------------------------
------7s10-7------------------0--------0-----
-------------10-9h10p9-5----2------0-4----0--
----7---------------------3------3-----------
--5------------------------------------------

solo de guitarra (0:22)

-12~-12~-------12-10------------------------------
------------13-------13-12-10---------------------
---------14-------------------12~-10-9-10-9-------
--------------------------------------------------
--------------------------------------------12-12-
--------------------------------------------------

-------------12-12-------12-15-13-12-10-12~--
----------------------13---------------------
----------14-------14------------------------
-------14------------------------------------
-12-15---------------------------------------
---------------------------------------------

-15----------13-----------------------
----13----13----12----12-13-12-10~----
-------12----------10-----------------
--------------------------------------
--------------------------------------
--------------------------------------

--------------------------------
--------------------------------
-------9------------------------
-10-12---12-10-12-10-9-10-9-----
----------------------------12--
--------------------------------

---------------------------
---------------------------
-------9-------------------
-10-12---12-10-12-10-9-----
-----------------------12--
---------------------------

--------------------------------
--------------------------------
-------9------------------------
-10-12---12-10-12-10-9-10-9-----
----------------------------12--
--------------------------------


----------------------------
----------------------------
-------9--------12-9-12-----
-10-12---12-10-----------7--
-------------------------7--
-------------------------5--

VERSO 1 (1:08) despues del piano

    Am
Donde la lluvia nace
  C    G     Am
y la luna flirtea, 
  Am           C
con mi mala estrella,
   D             Am
aún sigo pensando en ti. 
  Am            C
Quién me vende un alma 
   D            Am
y me presta esperanza
  C        G        Am
pues es el fin del camino
  C     G    Am
y no sé a dónde ir
  C     G    Am
y no sé a dónde ir
  C        G
si no es sin ti. 

VIOLIN 1 (1:51)
X4

----------------------------------------
-10-10-13-10-12-13-10-------------------
----------------------12-9--------------
---------------------------12-10--------
---------------------------------12-10--
----------------------------------------

----------------------------------12-10-----
-10-10-13-10-12-13-10---------10--------13--
----------------------12-9-12---------------
--------------------------------------------
--------------------------------------------
--------------------------------------------

VIOLIN 2 (2:11)
X2

-------------14-12-----------9----12-10-9--
-12-12-15-12-------15--10-10---10----------
-------------------------------------------
-------------------------------------------
-------------------------------------------
-------------------------------------------

-------------14-12-----------9-12--
-12-12-15-12-------15--10-10-------
-----------------------------------
-----------------------------------
-----------------------------------
-----------------------------------

VERSO 2 (2:22)
X8

-----------------------
-----------------------
--9---7---5--4--2-2----
--9---7---5--4--2-2----
--7---5---3--2--0-0----
----0---0--------------
Oigo que lloras nena
y no te puedo abrazar
no dejes que entre estas maderas
mi palabra puedan enterrar 
Mientras oigo los últimos rezos
me llevo guardados tus besos
y que me quiten ésta jodida cruz
y en su lugar pongan tus pechos 

CORO 1 (2:42)

------------------------------------
------------------------------------
--------5--2----------5--2-2-2-2----
--3--5--5--2----3--5--5--2-2-2-2----
--3--5--3--0----3--5--3--0-0-0-0----
--1--3----------1--3----------------
Quién me vende un alma 
y me presta esperanza
pues es el fin del camino
y no sé a dónde ir 

*VIOLIN 1 (2:54)
X2

VERSO 3 (igual al 2)

Más amargo que la muerte
es no poder volverte a ver
yo no he elegido perderte
hay un vacío que ha violado mi fé 

Padre, ¿por qué me has abandonado?
¿por qué siempre haces tu voluntad?
es tan cómodo el haberme enviado
y dirigir desde tu pedestal

CORO 2 (igual al 1, solo que 2 veces)

RIFF especial 1 (3:48)
X6

-------------------------------
-------------------------------
-----2--5-----------2----------
--3--2--5--5-5---3--2--5-5-5---
--3--0--3--5-5---3--0--5-5-5---
--1--------3-3---1-----3-3-3---

*Parte de bajo (4:17)

Espíritu santus ora pronobis
Espíritu santus ora pronobis 

La lluvia ácida cubría Madrid
y al director de la fábrica se le oye reír
se masturba la muerte en Sarajevo
y sodomiza a un militar con un fajo de dinero 

Espíritu santus ora pronobis
Espíritu santus ora pronobis 

Dos terroristas han sido absueltos
y por "pillar" en Marruecos en el "trullo" hay cientos
eso sí, tenemos la patria, la bandera, toros, iglesia
y furbo en la primera ...

RIFF especial 2 (5:05)
X2

----------------------------
----------------------------
-----2-----------5--9--7----
--3--2--5-5-5----5--9--7----
--3--0--5-5-5----3--7--5----
--1-----3-3-3---------------

*solo de guitarra (5:14)

VIOLIN 3 (5:51)
X3

----12-10-13-12-10----10----------------------
-10----------------13----13-12-10-8-10-12-10--
----------------------------------------------
----------------------------------------------
----------------------------------------------
----------------------------------------------

----12-10-13-12-10----10----------------------
-10----------------13----13-12-10-8-10-12-----
------------------------------------------10--
----------------------------------------------
----------------------------------------------
----------------------------------------------

-------------------10-------------------------
----12-10-13-12-10----13-12-10-8-10-12-13-----
-10---------------------------------------12--
----------------------------------------------
----------------------------------------------
----------------------------------------------

-------------------13-12-10-15-13-12-10--------
----12-10-13-12-10----------------------13-10--
-12--------------------------------------------
-----------------------------------------------
-----------------------------------------------
-----------------------------------------------

*parte de piano y bajo pasado a guitarra (6:19)
X4

-------------------------------------10----------10-----------
-10-12-13-12-10-12-13-12-13-12----12----12----12-------13-12--
-------------------------------12----------12-------12--------
--------------------------------------------------------------
--------------------------------------------------------------
--------------------------------------------------------------

el violin entra asi (6:40)
X2

-------------12-10-----------------12-10-----
-10-10-13-10-------13--10-10-13-10-------13--
---------------------------------------------
---------------------------------------------
---------------------------------------------
---------------------------------------------

-------------10---------------------10--------
-------12-------13-12---------12-------13-12--
-12-12----12------------12-12----12-----------
----------------------------------------------
----------------------------------------------
----------------------------------------------

X2 (6:50)

-------------14-12-----------9----12-10-9--
-12-12-15-12-------15--10-10---10----------
-------------------------------------------
-------------------------------------------
-------------------------------------------
-------------------------------------------

-------------14-12-----------9-12--
-12-12-15-12-------15--10-10-------
-----------------------------------
-----------------------------------
-----------------------------------
-----------------------------------

VERSO 4 (igual al 2 y 3)

Más amargo que la muerte
es no poder volverte a ver
yo no he elegido perderte
hay un vacío que ha violado mi fé 

Padre, ¿por qué me has abandonado?
¿por qué siempre haces tu voluntad?
es tan cómodo el haberme enviado
y dirigir desde tu pedestal

*CORO 3 (igual al 1 y 2)

(despues del grito en 7:44 va
el mismo riff del verso)

*VIOLIN 1 (7:54)
X2

*VIOLIN 2 (8:05)
X4
Espíritu santus ora pronobis
Espíritu santus ora pronobis 

RIFF final (8:17)

-------s17~~--
--------------
--------------
--7-----------
--7-----------
--5-----------

Diego Preciado
MAgo de oz!!!!
Suggest correction new What's this?
You can suggest a correction to this tab. Community and Mods will review your correction and vote to approve or reject it.
comments
print report bad tab
I want to post or [tab]
guest
You may want to rate the tab now too:
select rating
Please do not post tabs as comments. Select "correction" instead!