Oops, an error
Loading. Please wait.

El Santo Grial Tab

version 1
version 1

Whole song

8,795 views 12 this week
no commentswrite comment
1 2 3 4 5
please rate
add to favorites
launch autoscroll
font size
0
reset
how to read this tab
guitar tuner
Tab Pro tools
  • play this tab
  • loop segment
  • change instrument
  • show fretboard
  • metronome
×
Best way to learn
"El Santo Grial"
Autoscroll
slow
fast
+/-
esc
set tempo
stop
Contributor
rtist: Mago de Oz
song: el santo grial
album: la leyenda de la mancha 

artista: mago de oz
titulo: el santo grial
album: la leyenda de la mancha

Simbolos:
---------
/ --> Slide 
h --> hammer-on
p --> pull-off
~~~ --> vibrato


Intro (Guitarras 1 y 2)
-----
|--------------------|
|--------------------|
|--------------------|
|--13----13/12---10--|
|--13----13/12---10--|
|--11----11/10---8---|

|--------------------------------------------------------------------|
|--------------------------------------------------------------------|
|*-------------------------------------------------------------------|
|*-------------------------------------------------------------------|
|---p---------------p---------------p----------------p-------p-------|
|--6-3-3-3-3-3-3-3-6-3-3-3-3-3-3-3-6-3-3-3-3-3-3-3-10-8-6-6-8-6-3-3--|

1.
----------------|
|------------------------------------------------------------------|
|------------------------------------------------------------------|
|-----------------------------------------------------------------*|
|-----------------------------------------------------------------*|
|---p---------------p---------------p--------------13-12-10-8-5-8--|
|--6-3-3-3-3-3-3-3-6-3-3-3-3-3-3-3-6-3-3-3-3-3-3-3-11-10--8-6-7-6--|

2.
------------------|
|--------------------|
|--------------------|
|--------------------|
|--------------------|
|----p-------p-------|
|--10-8-6-6-8-6-3-3--|


| 0:16 |
Riff
----
Guitarra 1 y 2 2 veces
|---------------------------------------------------|
|---------------------------------------------------|
|*-------------------------------------------------*|
|*-------------------------------------------------*|
|--5-----------5-----------5-----------3------------|
|--3---3-3-3-3-3---3-3-3-3-3---3-3-3-3-1---1-1-1-1--|

Verso 1 (Guitarras 1 y 2)
------- 2 veces
|-----------------------------------------|
|-----------------------------------------|
|*---------------------------------------*|
|*-5--------8--------3--------10----10/8-*|
|--5--------8--------3--------10----10/8--|
|--3--------6--------1---------8-----8/6--|

|-------------------------------------------------------------------|
|-------------------------------------------------------------------|
|*------------------------------------------------------------------|
|*------------------------------------------------------------------|
|--5----------------------------------------------------------------|
|--3---3-3-3-3-3-3-3-3-3-3-3-3-3-3-6-6-6-6-6-6-6-6-6-6-6-6-6-6-6-6--|

2 veces
|-------------------------------------------------------------------|
|-------------------------------------------------------------------|
|*-----------------------------------------------------------------*|
|*-----------------------------------------------------------------*|
|---------------------------------------------------------10/8------|
|--1-1-1-1-1-1-1-1-1-1-1-1-1-1-1-1-8-8-8-8-8-8-8-8-8-8-8-8-8/6------|


| 0:56 |
Estribillo (Guitarras 1 y 2)
---------- 3 veces
|------------------------------------------------------------|------|
|------------------------------------------------------------|------|
|*----------------------------------------------------------*|------|
|*----------------------------------------------------------*|------|
|---p---------------p---------------p--------------13-12-10--|--12--|
|--6-3-3-3-3-3-3-3-6-3-3-3-3-3-3-3-6-3-3-3-3-3-3-3-11-10--8--|--10--|

Verso 2 (Guitarras 1 y 2)
-------- 2 veces
|--------------------------------------|
|--------------------------------------|
|*------------------------------------*|
|*-5-------13---13---8--------3---3---*|
|--5-------13--------8--------3--------|
|--3-------11--------6--------1--------|

|---------------------------------------------------------------------------------|
|---------------------------------------------------------------------------------|
|---------------------------------------------------------------------------------|
|---------------------------------------------------------------------------------|
|-5-------------------------------------------------------------------------------|
|-3---3-3-3-3-3-3-3-3-3-3-3-3-3-3-11-11-11-11-11-11-11-11-11-11-11-11-11-11-11-11-|

|-------------------------------------------------------------------|
|-------------------------------------------------------------------|
|-------------------------------------------------------------------|
|-------------------------------------------------------------------|
|-------------------------------------------------------------------|
|--6-6-6-6-6-6-6-6-6-6-6-6-6-6-6-6-1-1-1-1-1-1-1-1-1-1-1-1-1-1-1-1--|

|---------------------------------------------------------------------------------|
|---------------------------------------------------------------------------------|
|---------------------------------------------------------------------------------|
|---------------------------------------------------------------------------------|
|---------------------------------------------------------------------------------|
|-3-3-3-3-3-3-3-3-3-3-3-3-3-3-3-3-11-11-11-11-11-11-11-11-11-11-11-11-11-11-11-11-|

|-------------------------------------------------------------------|
|-------------------------------------------------------------------|
|-------------------------------------------------------------------|
|-------------------------------------------------------------------|
|-------------------------------------------------------------------|
|--6-6-6-6-6-6-6-6-6-6-6-6-6-6-6-6-1-1-1-1-1-1-1-1-1-1-1-1-1-1-1-1--|


| 2:15 |
Puente (Tapping)
------
Guitarra 2
|-h--p--p--h----|-----|-----|-----|-h--p--p--h----|-----|-----|-----|
|--19-15-12-15--|-----|-----|-----|--20-15-12-15--|-----|-----|-----|
|*--------------|--%--|--%--|--%--|---------------|--%--|--%--|--%--|
|*--------------|-----|-----|-----|---------------|-----|-----|-----|
|---------------|-----|-----|-----|---------------|-----|-----|-----|
|---------------|-----|-----|-----|---------------|-----|-----|-----|

1.
--------------------------------|
|-h--p--p--h----|-----|-----|-----|-h--p--p--h----|-----|-----|-----|
|--19-15-12-15--|-----|-----|-----|--19-14-11-14--|-----|-----|-----|
|---------------|--%--|--%--|--%--|---------------|--%--|--%--|--%-*|
|---------------|-----|-----|-----|---------------|-----|-----|----*|
|---------------|-----|-----|-----|---------------|-----|-----|-----|
|---------------|-----|-----|-----|---------------|-----|-----|-----|

2.
-------------------------------|
|-h--p--p-h----|-----|-----|-----|
|--19-12-9-12--|-----|-----|-----|
|--------------|--%--|--%--|--%--|
|--------------|-----|-----|-----|

comments
We did not receive enough feedback on this tab! Please rate:
print report bad tab
1 2 3 4 5
I want to post or [tab]
guest
You may want to rate the tab now too:
select rating
Please do not post tabs as comments. Select "correction" instead!