Oops, an error
Loading. Please wait.

Satania Tab

version 1
version 1

Whole song

Interactive

11,579 views 15 this week
no commentswrite comment
1 2 3 4 5
worth learning
x 2
add to favorites
launch autoscroll
font size
0
reset
how to read this tab
guitar tuner
Tab Pro tools
  • play this tab
  • loop segment
  • change instrument
  • show fretboard
  • metronome
Autoscroll
slow
fast
+/-
esc
set tempo
stop
I V Á N  B A R R E R A  L I C H T 
     gunnerslash@hotmail.com


                         M A G O  D E  O Z
                         " S a t a n i a "


INTRO:   E.........E.........E........E D B Gx E      (G en
traste 10)

RIFF A: (violin)
E|---------5-7-5------------------5-7-5-/10-7-----
B|---5-7-8-------7---5------5-7-8-----------------
G|-7---------------7------7-----------------------

(guit.)  G     D     E          G     D     B

E|---------5-7-5------------------------------------------
B|---5-7-8-------7---5-7-8-7-----------5-------------3----
G|-7---------------7---------7---4-5-7---7-4-0-2-2-2------

(guit.)  G     D     E     B     C       G     A     D

RIFF A': (la primera parte igual, la segunda así...)
E|---------5-7-5------------------------------------------
B|---5-7-8-------7---5--(8va +agudo:)-8-7-5---------------
G|-7---------------7------------------------7--4-7--2-4---

(guit.)  G     D     E                    G      D    B

VERSOS: D y E
D-E   D-E  ...   D E A B

BRIDGE:              1.                     2.
B|---------10-8-7---|----------------------|---------------
G|----------------7-|----------------------|---------------
D|--9--7------------|---9--7---------------|-----4----9----
A|--7--5------------|---7--5---2-2-5^2-5^2-|-----2----7----

(g) E  D             1. E  D   B            2.   B    E 

RIFF B: (guitarra 1, dos veces igual) (0:56)
B|----------------------------------------------------------
G|-------------------------------------------2-4-2----------
D|-2---4-5-4-2-----2---4-5-4-2---------2-4-5-------5-4------
A|-------------5---------------5---3-5----------------------

(guitarra 2)
E|-------------------------------------------7-9-7----------
B|-5---7-8-7-5-----5---7-8-7-5-----5-7-8-7-8-------8-7------
G|-------------7---------------7----------------------------

(continuación)
G|-------4---------------4-------------4--------------------
D|-5---7---7-5-4---5---7---7-5-4---5-7---7-5-4-5-7-5-4------

ESTRIBILLO: (1:35)
(guitarras)
D|--9------------------|-------------------------------------
A|--7----9---10-----9--|-10-----9-------2--------2-----------
E|-------7----8-----7--|--8-----7---------5-3-2--0-----------

(violin)
E|---------------------|------------------------------------
B|--5------------------|------------------------------------
G|-------4----5-----4--|--5-----4-------4-2-----------------
D|---------------------|--------------------5-4--2----------

(violin, segunda vez)
E|-----------------/7--|--7-5-----------7-5-----------------
B|--5--7-8--7-8-7-5----|------8-7-5---------8-7--5----------
G|---------------------|--------------7---------------------
D|---------------------|------------------------------------

RIFF BAJO:(2:43)
                  X3    1.               2.
G|-----------------|----------------------------------------
D|-----------------|----5-----------5-------------5---------
A|-5^7-7-7-7-7-7-7-|------7-5---5-7---7-------5^7---7-5-----
E|-----------------|----------7-----------5^7-----------7---

(guitarra 1)
E|------|------|--------|------|-(repetir mogollon de veces)
B|-8----|-5----|-7--7^8-|-7----|----------------------------

(guitarra 2)
B|-5----|------|-3--3^5-|-3----|-(Idem)---------------------
G|------|-4----|--------|------|----------------------------

(violin, primero hace lo mismo q guit.2 luego)
B|-(5-7)-|-8-5---5-----8-5---5-----8-5---5-----8-7-5--------
G|-------|-----7-----------7-----------7-------------7------

(cont.)
B|---------7-3---3-----7-3---3-----7-3---3-----7-8-7-5------
G|-------------5-----------5-----------5--------------------

RIFF C: (4:19)-triadas- 1.                    2.
G|4-------4-------4-5-4*|2-------2-------2-4-2|5-------5-------5-7-5-
D|--5-2-5---5-2-5-------|--4---4---4---4------|--7-4-7---7-4-7-------
A|----------------------|----5-------5--------|----------------------
    *armonico artificial (octava) la primera vez

(guit. 2)   Cx2  A  D | Ex4 (vii)  | Dx4   | Ex4   ||

Arreglo de guitarra: (Palm mute contundente)
G|-4-------4-------4-------4-------|-2-----------------------
D|---5-2-5---5-2-5---5-2-5---5-2-5-|---4---4--(similar)------
A|---------------------------------|-----5-------------------

continuacion con lick de tapping:
    T        T        T               (t=tocar con mano
derecha)
B|-12-8-5-8-12-8-5-8-12--(etc.)------------------------------

SOLO: (5:06) 
Guitarra ritmica:  E - D - E - A cd  
                   E - D - E - C ad
                   E - C - B ...
 (más tarde)       EE - DEE - DEE ...  D E A

RIFF D: (5:33)   
E|------------------------|------------5-5-5-5------------
B|-5--5-5-7-8-7---------7-|-5--5-5-7-8---------8-7--------
G|--------------7-4-4-7---|-------------------------------

guitarra: E - D - E - A D

RIFF E: (5:57)          1.                   2.
E|7*-------7-5-7-8-7-5|5*-------5---5-7-5|8*---------8----8-10-8-
B|---8-5-8------------|---7---7---7------|---10-7-10---10--------
G|--------------------|-----7------------|-----------------------

guitarra: E - D - E - C ad  

FINAL: (A)  D - G   y  E .... .... (8 semicorcheas)

SOLO: (5:06)    (Ponedle un poco de imaginación!!!)     -Em-

    t        t        t        t        -de forma similar- 
B|-12-8-5-8-12-8-5-8-12-8-5-8-12-8-5-8-|-10-|-12-|-13-||


B|------------------------------------------|-12^13^12-----------
G|-14(16)-14(16)-14(16)-14-12-11-11^12-11-9-|----------14-12-----
D|------------------------------------------|----------------14--

B|-------12^13^12----------------15-15(17)-15-|---/15-15-14-12---
G|-12-14----------14-12----12-14--------------|----------------13
D|----------------------14--------------------|------------------

B|-17-15-14------19-17-15-14-15-17-15---14-15--|-20-19-17----------
G|----------15---------------------------------|----------20-------
D|---------------------------------------------|-------------19-...

gunnerslash@hotmail.com
comments
We did not receive enough feedback on this tab! Please rate:
print report bad tab
1 2 3 4 5
I want to post or [tab]
guest
You may want to rate the tab now too:
select rating
Please do not post tabs as comments. Select "correction" instead!