Oops, an error
Loading. Please wait.

Hestevisen Bass Tab

439 views 1 this week
no commentswrite comment
1 2 3 4 5
please rate
add to favorites
launch autoscroll
font size
0
reset
guitar tuner
Autoscroll
slow
fast
+/-
esc
set tempo
stop
Help us to improve Ultimate-Guitar.com Take our survey!
×
Author
Difficulty
Intro:
G:---------------|
D:---------------|
A:-5-------------|
E:---5-0-0-------|

Verse:
G:--------------------------------------------------------------------|
D:--------------------------------------------------------------------|
A:------------------5-5-5-5-5-5-5-5-----------------------------------|
E:-3-3-3-3-3-3-3-3------------------5-5-5-5-5-5-5-5-0-0-0-0-0-0-0-0---|

G:--------------------------------------------------------------------|
D:--------------------------------------------------------------------|
A:------------------5-5-5-5-5-5-5-5-----------------3-3-3-3-3-3-3-3---|
E:-3-3-3-3-3-3-3-3------------------5-5-5-5-5-5-5-5-------------------|

Chorus:
G:------------------|
D:------------------|
A:-----5-5-----0-0--|
E:-3-3-----5-5------|

Then just before it goes back to verse it goes:
G:---------------|
D:---------------|
A:---5---0-0-----|
E:-3---5---------|
Suggest correction
Give kudos to tab author, rate the tab!
1 2 3 4 5
comments
print report bad tab
guest
You may want to rate the tab now too:
select rating
Please do not post tabs as comments. Select "correction" instead!