Oops, an error
Loading. Please wait.

Lorteparforhold Tab

2,586 views 1 this week
no commentswrite comment
1 2 3 4 5
1 last vote to show rating
add to favorites
launch autoscroll
font size
0
reset
how to read this tab
guitar tuner
Autoscroll
slow
fast
+/-
esc
set tempo
stop
Help us to improve Ultimate-Guitar.com Take our survey!
×
Author
Difficulty
novice
Intro:
 
e:-7----5----3----7----------------|
a:-9----7----5----5----------------|
d:-9----7----5----5----------------|
g:-9----7----5----5----------------|    x2
h:-7----5----3----3----------------|
e:-7----5----3----3----------------|

verse:

e:-7----5----3----5-----------------|
a:-9----7----5----7-----------------|
d:-9----7----5----7-----------------|
g:-9----7----5----7-----------------| x3
h:-7----5----3----5-----------------|
e:-7----5----3----5-----------------|

e:-7----5----3---7------------------|
a:-9----7----5---5------------------|
d:-9----7----5---5------------------|
g:-9----7----5---5------------------|
h:-7----5----3---3------------------|
e:-7----5----3---3------------------|

så står vi her..... :

e:--7---5---3---3---5---7---|--5---3--2--0--0-------|
a:--9---7---5---5---7---5---|--7---5--4--1--0-------|
d:--9---7---5---5---7---5---|--7---5--4--2--0-------|
g:--9---7---5---5---7---5---|--7---5--4--2--2-------|
h:--7---5---3---3---5---7---|--5---3--2--0--2-------|
e:--7---5---3---3---5---7---|--5---3--2-----0-------|

chorus:

e:--7---5---7---7----------|--7---5---3----------------------|
a:--9---7---9---9----------|--9---7---5----------------------|
d:--9---7---9---9----------|--9---7---5----------------------|
g:--9---7---9---9----------|--9---7---5----------------------|
h:--7---5---7---7----------|--7---5---3----------------------|
e:--7---5---7---7----------|--7---5---3----------------------|

e:--7---5---10-14----------|--7---5---3---2--0--0---------------|
a:--9---7---12-14----------|--9---7---5---2--0--0---------------|
d:--9---7---12-14----------|--9---7---5---4--2--0---------------|
g:--9---7---12-14----------|--9---7---5---4--2--2---------------|
h:--7---5---10-12----------|--7---5---3---4--0--2---------------|
e:--7---5---10-12----------|--7---5---3---2-----0---------------|

verse: x4

Så står vi her

chorus

after chorus: 


e:--0----3------------------------|
a:--0----5------------------------|                
d:--0----5------------------------|
g:--2----5------------------------|  x3
h:--2----3------------------------|
e:--0----3------------------------|


e:--3----7------------------------|
a:--3----7------------------------|
d:--4----8------------------------|
g:--5----9------------------------|
h:--5----9------------------------|
e:--3----7------------------------|

Solo:


e:-7----5----3----5-----------------|
a:-9----7----5----7-----------------|
d:-9----7----5----7-----------------|
g:-9----7----5----7-----------------| x2
h:-7----5----3----5-----------------|
e:-7----5----3----5-----------------|


Verse:  x4

chorus
Suggest correction
Give kudos to tab author, rate the tab!
1 2 3 4 5
comments
print report bad tab
guest
You may want to rate the tab now too:
select rating
Wanna post a correction for this tab? Suggest correction