Oops, an error
Loading. Please wait.

Marry Me Acoustic tab

by Mahalia
1,456 views 21 this week
no commentswrite comment
1 2 3 4 5
1 last vote to show rating
add to favorites
×
Save as Personal and add changes to this tab that will be seen only by you. Learn more ›
×
You can save this tab as Personal to edit and correct it or add notes. All changes will be seen only by you. Learn more »
launch autoscroll
font size
0
reset
how to read this tab
guitar tuner
edit
Autoscroll
slow
fast
+/-
esc
set tempo
stop
From her performance on Mahogany Sessions:
https://www.youtube.com/watch?v=UuYVkE3OCEY


[Intro]

e|-----------------------------------------------|
B|-------2------2----------------2------2--------|
G|-----2------2-------2--------2------2------2---|
D|-----------------------------------------------|
A|--0------0------0--------0------0------0-------|
E|-----------------------------------------------|

e|-----------------------------------------------|
B|-------2------2----------------2------2--------|
G|-----2------2-------2--------2------2------2---|
D|--0------0------0---------0------0------0------|
A|-----------------------------------------------|
E|-----------------------------------------------|

e|-----------------------------------------------|
B|-------2------2----------------2------2--------|
G|-----2------2-------2--------2------2------2---|
D|-----------------------------------------------|
A|-----------------------------------------------|
E|--2------2-------2--------2------2------2------|

e|-----------------------------------------------|
B|-------2------2----------------2------2--------|
G|-----2------2-------2--------2------2------2---|
D|-----------------------------------------------|
A|-----------------------------------------------|
E|--0------0-------0--------0------0------0------|


[Verse/Chorus]

e|-----------------------------------------------|-----------------------------------------------|
B|-------2------2----------------2------2--------|-------2------2----------------2------2--------|
G|-----2------2-------2--------2------2------2---|-----2------2-------2--------2------2------2---|
D|-----------------------------------------------|--0------0------0---------0------0------0------|
A|--0------0------0--------0------0------0-------|-----------------------------------------------|
E|-----------------------------------------------|-----------------------------------------------|

e|-----------------------------------------------|-----------------------------------------------|
B|-------2------2----------------2------2--------|-------2------2----------------2------2--------|
G|-----2------2-------2--------2------2------2---|-----2------2-------2--------2------2------2---|
D|-----------------------------------------------|-----------------------------------------------|
A|-----------------------------------------------|-----------------------------------------------|
E|--2------2-------2--------2------2------2------|--0------0-------0--------0------0------0------|

e|-----------------------------------------------|-----------------------------------------------|
B|-------2------2----------------2------2--------|-------2------2----------------2------2--------|
G|-----2------2-------2--------2------2------2---|-----2------2-------2--------2------2------2---|
D|-----------------------------------------------|--0------0------0---------0------0------0------|
A|--0------0------0--------0------0------0-------|-----------------------------------------------|
E|-----------------------------------------------|-----------------------------------------------|

e|-----------------------------------------------|-----------------------------------------------|
B|-------2------2----------------2------2--------|-------2------2----------------2------2--------|
G|-----2------2-------2--------2------2------2---|-----2------2-------2--------2------2------2---|
D|-----------------------------------------------|-----------------------------------------------|
A|-----------------------------------------------|-----------------------------------------------|
E|--2------2-------2--------2------2------2------|--0------0-------0--------0------0------0------|

e|-----------------------------------------------|-----------------------------------------------|
B|-------2------2----------------2------2--------|-------2------2----------------2------2--------|
G|-----2------2-------2--------2------2------2---|-----2------2-------2--------2------2------2---|
D|-----------------------------------------------|--0------0------0---------0------0------0------|
A|--0------0------0--------0------0------0-------|-----------------------------------------------|
E|-----------------------------------------------|-----------------------------------------------|

e|-----------------------------------------------|-----------------------------------------------|
B|-------2------2----------------2------2--------|-------2------2----------------2------2--------|
G|-----2------2-------2--------2------2------2---|-----2------2-------2--------2------2------2---|
D|-----------------------------------------------|-----------------------------------------------|
A|-----------------------------------------------|-----------------------------------------------|
E|--2------2-------2--------2------2------2------|--0------0-------0--------0------0------0------|

e|-----------------------------------------------|-----------------------------------------------|
B|-------2------2----------------2------2--------|-------2------2----------------2------2--------|
G|-----2------2-------2--------2------2------2---|-----2------2-------2--------2------2------2---|
D|-----------------------------------------------|--0------0------0---------0------0------0------|
A|--0------0------0--------0------0------0-------|-----------------------------------------------|
E|-----------------------------------------------|-----------------------------------------------|

e|-----------------------------------------------|-----------------------------------------------|
B|-------2------2----------------2------2--------|-------2------2----------------2------2--------|
G|-----2------2-------2--------2------2------2---|-----2------2-------2--------2------2------2---|
D|-----------------------------------------------|-----------------------------------------------|
A|-----------------------------------------------|-----------------------------------------------|
E|--2------2-------2--------2------2------2------|--0------0-------0--------0------0------0------|


[Verse]

e|-----------------------------------------------|-----------------------------------------------|
B|------2-------2--------------2-------2---------|------2-------2--------------2-------2---------|
G|------2-------2--------------2-------2---------|------2-------2--------------2-------2---------|x8
D|-----------------------------------------------|-----------------------------------------------|
A|--0------0---------0---------------------------|-----------------------------------------------|
E|-------------------------2------2---------2----|--0------0---------0-----2------2---------2----|


[Outro]

e|-----------------------------------------------|
B|-----------------------------------------------|
G|-----------------------------------------------|
D|-----------------------------------------------|
A|--0--------------------------------------------|
E|-------------------------2---------------------|

e|-----------------------------------------------|
B|--------------------------------------2--------|
G|--------------------------------------2--------|
D|-----------------------------------------------|
A|-----------------------------------------------|
E|--0----------------------2---------------------|

e|-----------------------------------------------|
B|------2-------2--------------2-------2---------|
G|------2-------2--------------2-------2---------|
D|-----------------------------------------------|
A|--0------0---------0---------------------------|
E|-------------------------2------2---------2----|

e|-----------------------------------------------|
B|------2-------2--------------2-------2---------|
G|------2-------2--------------2-------2---------|
D|-----------------------------------------------|
A|-----------------------------------------------|
E|--0------0---------0-----2------2---------2----|

e|-----------------------------------------------|
B|------2-------2--------------2-------2---------|
G|------2-------2--------------2-------2---------|
D|-----------------------------------------------|
A|--0------0---------0---------------------------|
E|-------------------------2------2---------2----|

e|-----------------------------------------------|
B|------2-------2------------2-------------------|
G|------2-------2------------2-------------------|
D|-----------------------------------------------|
A|---------------------------0-------------------|
E|--0------0---------0---------------------------|
Suggest correction
Creating personal tab
Creating personal tab
You can edit any tab online and save it as your Personal.

You can edit, replace or remove any tab part or add personal notes – all changes will be seen only by you.

Personal tabs can be accessed anytime from any device, even offline.
Learn more »
Give kudos to tab author, rate the tab!
1 2 3 4 5
comments
print report bad tab
guest
Wanna post a correction for this tab? Suggest correction