Oops, an error
Loading. Please wait.

Silly Girl tab

by Mahalia
316 views 18 this week
no commentswrite comment
1 2 3 4 5
2 more votes to show rating
add to favorites
×
Save as Personal and add changes to this tab that will be seen only by you. Learn more ›
×
You can save this tab as Personal to edit and correct it or add notes. All changes will be seen only by you. Learn more »
launch autoscroll
font size
0
reset
how to read this tab
guitar tuner
edit
Autoscroll
slow
fast
+/-
esc
set tempo
stop
Standard Tuning
Capo 2

[Intro]
e|--------x---------x---------x---------x---------x---------x---------x---------x-------|
B|--------x---------x---------x---------x---------x---------x---------x---------x-------|
G|-----4--x------4--x------4--x------4--x------0--x------0--x------0--x------0--x-------|
D|-----5--x------5--x------5--x------5--x------2--x------2--x------2--x------2--x-------|
A|--------x----5----x---------x----5----x---------x----2----x---------x----2----x-------|
E|-3-3----x--3------x--3-3----x--3------x--0-0----x--0------x--0-0----x--0------x-------|

e|--------x---------x---------x---------x---------x---------x-------x-------|
B|--------x---------x---------x---------x---------x---------x-------x-------|
G|-----4--x------4--x------4--x------4--x------0--x------0--x----0--x-------|
D|-----5--x------5--x------5--x------5--x------2--x------2--x----2--x-------|
A|--------x----5----x---------x----5----x---------x----2----x-------x-------|
E|-3-3----x--3------x--3-3----x--3------x--0-0----x--0------x--0-0--x-------|

[Verse]
e|--------x---------x---------x---------x---------x---------x---------x---------x-------|
B|--------x---------x---------x---------x---------x---------x---------x---------x-------|
G|-----4--x------4--x------4--x------4--x------0--x------0--x------0--x------0--x-------|
D|-----5--x------5--x------5--x------5--x------2--x------2--x------2--x------2--x-------|
A|--------x----5----x---------x----5----x---------x----2----x---------x----2----x-------|
E|-3-3----x--3------x--3-3----x--3------x--0-0----x--0------x--0-0----x--0------x-------|

e|--------x---------x---------x---------x---------x---------x---------x---------x-------|
B|--------x---------x---------x---------x---------x---------x---------x---------x-------|
G|-----4--x------4--x------4--x------4--x------0--x------0--x------0--x------0--x-------|
D|-----5--x------5--x------5--x------5--x------2--x------2--x------2--x------2--x-------|
A|--------x----5----x---------x----5----x---------x----2----x---------x----2----x-------|
E|-3-3----x--3------x--3-3----x--3------x--0-0----x--0------x--0-0----x--0------x-------|

e|---------x---------x---------x---------x---------x---------x---------x---------x---|
B|---------x---------x---------x---------x---------x---------x---------x---------x---|
G|------7--x------7--x------5--x------5--x------4--x------4--x------4--x------4--x---|
D|------7--x------7--x------5--x------5--x------5--x------5--x------5--x------5--x---|
A|---------x---------x---------x---------x---------x----5----x---------x----5----x---|
E|--7-7----x--7------x--5-5----x--5------x--3-3----x--3------x--3-3----x--3------x---|

e|---------x---------x---------x---------x---------x---------x-----x---|
B|---------x---------x---------x---------x---------x---------x-----x---|
G|------7--x------7--x------5--x------5--x------4--x------4--x--4--x---|
D|------7--x------7--x------5--x------5--x------5--x------5--x--5--x---|
A|---------x---------x---------x---------x---------x----5----x-----x---|
E|--7-7----x--7------x--5-5----x--5------x--3-3----x--3------x--3--x---|

[Chorus]
e|--------x---------x---------x---------x---------x---------x---------x---------x-------|
B|--------x---------x---------x---------x---------x---------x---------x---------x-------|
G|-----4--x------4--x------4--x------4--x------0--x------0--x------0--x------0--x-------|
D|-----5--x------5--x------5--x------5--x------2--x------2--x------2--x------2--x-------|
A|--------x---------x---------x---------x---------x---------x--3-3----x--3------x-------|
E|-3-3----x--3------x--3-3----x--3------x--0-0----x--0------x---------x---------x-------|

e|--------x---------x---------x---------x---------x---------x---------x---|
B|--------x---------x---------x---------x---------x---------x---------x---|
G|-----4--x------4--x------4--x------4--x------0--x------0--x---------x---|
D|-----5--x------5--x------5--x------5--x------2--x------2--x---------x---|
A|--------x---------x---------x---------x---------x---------x--3-3----x---|
E|-3-3----x--3------x--3-3----x--3------x--0-0----x--0------x---------x---|

[Verse]
e|--------x---------x---------x---------x---------x---------x---------x---------x-------|
B|--------x---------x---------x---------x---------x---------x---------x---------x-------|
G|-----4--x------4--x------4--x------4--x------0--x------0--x------0--x------0--x-------|
D|-----5--x------5--x------5--x------5--x------2--x------2--x------2--x------2--x-------|
A|--------x---------x---------x---------x---------x---------x---------x---------x-------|
E|-3-3----x--3------x--3-3----x--3------x--0-0----x--0------x--0-0----x--0------x-------|

e|--------x---------x---------x---------x---------x---------x---------x---------x-------|
B|--------x---------x---------x---------x---------x---------x---------x---------x-------|
G|-----4--x------4--x------4--x------4--x------0--x------0--x------0--x------0--x-------|
D|-----5--x------5--x------5--x------5--x------2--x------2--x------2--x------2--x-------|
A|--------x---------x---------x---------x---------x---------x---------x---------x-------|
E|-3-3----x--3------x--3-3----x--3------x--0-0----x--0------x--0-0----x--0------x-------|

e|---------x---------x---------x---------x---------x---------x---------x---------x---|
B|---------x---------x---------x---------x---------x---------x---------x---------x---|
G|------7--x------7--x------5--x------5--x------4--x------4--x------4--x------4--x---|
D|------7--x------7--x------5--x------5--x------5--x------5--x------5--x------5--x---|
A|---------x---------x---------x---------x---------x----5----x---------x---------x---|
E|--7-7----x--7------x--5-5----x--5------x--3-3----x--3------x--3-3----x--3------x---|

e|---------x---------x---------x---------x---------x---------x-----x---|
B|---------x---------x---------x---------x---------x---------x-----x---|
G|------7--x------7--x------5--x------5--x------4--x------4--x--4--x---|
D|------7--x------7--x------5--x------5--x------5--x------5--x--5--x---|
A|---------x---------x---------x---------x---------x----5----x-----x---|
E|--7-7----x--7------x--5-5----x--5------x--3-3----x--3------x--3--x---|

[Chorus]
e|--------x---------x---------x---------x---------x---------x---------x---------x-------|
B|--------x---------x---------x---------x---------x---------x---------x---------x-------|
G|-----4--x------4--x------4--x------4--x------0--x------0--x------0--x------0--x-------|
D|-----5--x------5--x------5--x------5--x------2--x------2--x------2--x------2--x-------|
A|--------x---------x---------x---------x---------x---------x--3-3----x--3------x-------|
E|-3-3----x--3------x--3-3----x--3------x--0-0----x--0------x---------x---------x-------|

e|--------x---------x---------x---------x---------x---------x---------x---------x-------|
B|--------x---------x---------x---------x---------x---------x---------x---------x-------|
G|-----4--x------4--x------4--x------4--x------0--x------0--x------0--x------0--x-------|
D|-----5--x------5--x------5--x------5--x------2--x------2--x------2--x------2--x-------|
A|--------x---------x---------x---------x---------x---------x--3-3----x--3------x-------|
E|-3-3----x--3------x--3-3----x--3------x--0-0----x--0------x---------x---------x-------|

e|--------x---------x---------x---------x---------x---------x---------x---------x-------|
B|--------x---------x---------x---------x---------x---------x---------x---------x-------|
G|-----4--x------4--x------4--x------4--x------0--x------0--x------0--x------0--x-------|
D|-----5--x------5--x------5--x------5--x------2--x------2--x------2--x------2--x-------|
A|--------x---------x---------x---------x---------x---------x--3-3----x--3------x-------|
E|-3-3----x--3------x--3-3----x--3------x--0-0----x--0------x---------x---------x-------|

e|--------x---------x---------x---------x---------x---------x---------x---|
B|--------x---------x---------x---------x---------x---------x---------x---|
G|-----4--x------4--x------4--x------4--x------0--x------0--x---------x---|
D|-----5--x------5--x------5--x------5--x------2--x------2--x---------x---|
A|--------x---------x---------x---------x---------x---------x--3-3----x---|
E|-3-3----x--3------x--3-3----x--3------x--0-0----x--0------x---------x---|

[Bridge] 
(Quieter and lightly strum at the end off each chord)
e|--------x---------x---------x---------x---------x---------x---------x---------x-------|
B|--------x---------x---------x---------x---------x---------x---------x---------x-------|
G|-----4--x------4--x------4--x------4--x------0--x------0--x------0--x------0--x-------|
D|-----5--x------5--x------5--x------5--x------2--x------2--x------2--x------2--x-------|
A|--------x----5----x---------x----5----x---------x----2----x---------x----2----x-------|
E|-3-3----x--3------x--3-3----x--3------x--0-0----x--0------x--0-0----x--0------x-------|

e|--------x---------x---------x---------x---------x---------x---------x---------x-------|
B|--------x---------x---------x---------x---------x---------x---------x---------x-------|
G|-----4--x------4--x------4--x------4--x------0--x------0--x------0--x------0--x-------|
D|-----5--x------5--x------5--x------5--x------2--x------2--x------2--x------2--x-------|
A|--------x----5----x---------x----5----x---------x----2----x---------x----2----x-------|
E|-3-3----x--3------x--3-3----x--3------x--0-0----x--0------x--0-0----x--0------x-------|

e|---------x---------x---------x---------x---------x---------x---------x---------x---|
B|---------x---------x---------x---------x---------x---------x---------x---------x---|
G|------7--x------7--x------5--x------5--x------4--x------4--x------4--x------4--x---|
D|------7--x------7--x------5--x------5--x------5--x------5--x------5--x------5--x---|
A|---------x---------x---------x---------x---------x----5----x---------x----5----x---|
E|--7-7----x--7------x--5-5----x--5------x--3-3----x--3------x--3-3----x--3------x---|(x7)

e|---------x---------x---------x---------x---------x---------x-----x---|
B|---------x---------x---------x---------x---------x---------x-----x---|
G|------7--x------7--x------5--x------5--x------4--x------4--x--4--x---|
D|------7--x------7--x------5--x------5--x------5--x------5--x--5--x---|
A|---------x---------x---------x---------x---------x----5----x-----x---|
E|--7-7----x--7------x--5-5----x--5------x--3-3----x--3------x--3--x---|

e|---------x---------x---------x---------x---------x---------x---------x---------x---|
B|---------x---------x---------x---------x---------x---------x---------x---------x---|
G|------7--x------7--x------5--x------5--x------4--x------4--x------4--x------4--x---|
D|------7--x------7--x------5--x------5--x------5--x------5--x------5--x------5--x---|
A|---------x---------x---------x---------x---------x----5----x---------x----5----x---|
E|--7-7----x--7------x--5-5----x--5------x--3-3----x--3------x--3-3----x--3------x---|(x3)

[Outro] 
(Slow and soft strum and let it ring)
                    G 
e|---------------------------------------------------------------------------|
B|--------------------3------------------------------------------------------|
G|-7-----6--5--------0-------------------------------------------------------|
D|-7-----6--5-------0--------------------------------------------------------|
A|-x-----x--x------2---------------------------------------------------------|
E|-7-----6--5-----3----------------------------------------------------------|


************************************

| x  Dead note

************************************

            
            
Suggest correction
Creating personal tab
Creating personal tab
You can edit any tab online and save it as your Personal.

You can edit, replace or remove any tab part or add personal notes – all changes will be seen only by you.

Personal tabs can be accessed anytime from any device, even offline.
Learn more »
Give kudos to tab author, rate the tab!
1 2 3 4 5
comments
print report bad tab
guest
You may want to rate the tab now too:
select rating
Wanna post a correction for this tab? Suggest correction