Oops, an error
Loading. Please wait.

The Dance Of Maya Tab

version 1
version 1

Whole song

Interactive

9,189 views 21 this week
2 commentsread comments
1 2 3 4 5
x 7
add to favorites
launch autoscroll
font size
0
reset
how to read this tab
guitar tuner
×
Best way to learn
"The Dance Of Maya"
Autoscroll
slow
fast
+/-
esc
set tempo
stop
E|-------|-------|---------|-------|-------|---------|
B|-----3-|-----3-|-------2-|-----1-|-----0-|---------|
G|---1---|---0---|-----0---|-------|-------|-------2-|
D|-------|-------|---------|---3---|---3---|-----0---|
A|-------|-------|---0-----|-------|-------|---------|
E|-0-----|-4-----|-4-------|-2-----|-3-----|-3-1-----|

E|-------|-------|---------|-------|-------|---------|
B|-----3-|-----3-|-------2-|-----0-|-----0-|-------3-|
G|---1---|---0---|-----0---|-------|-------|-----0---|
D|-------|-------|---------|---2---|---3---|---------|
A|---0---|-------|---0-----|-------|-------|---------|
E|-0-----|-4-----|-4-------|-1-----|-3-----|-3-4-----|

E|-------|-----3-|---------|-----1-|-----0-|-------|
B|-----2-|-------|-------7-|-------|-------|-----3-|
G|---0---|---5---|-----5---|---3---|---3---|---0---|
D|-------|-------|---------|-------|-------|-------|
A|-0-----|-4-----|-4-5-----|-2-----|-3-----|-1-----|
E|-------|-------|---------|-------|-------|-------|

E|-------|-------|---------|-------|-------|---------|
B|-----3-|-----3-|-------2-|-----1-|-----0-|-------3-|
G|---1---|---0---|-----0---|-------|-------|-----0---|
D|-------|-------|---------|---3---|---3---|---------|
A|-------|-------|---0-----|-------|-------|---------|
E|-0-----|-4-----|-4-------|-2-----|-3-----|-3-4-----|

E|-------|-----0-|---------|-----2-|-------|--------4-|
B|-----2-|-------|-------4-|-------|-----6-|----------|
G|---0---|---2---|-----2---|---4---|---4---|-----6----|
D|-------|-------|---------|-------|-------|----------|
A|-0-----|-1-----|-1-2-----|-3-----|-4-----|-4-5------|
E|-------|-------|---------|-------|-------|----------|

(Guitar/Keys) 
(playing all of these notes are only possible with a keyboard, so i
playing everything except those on the high E string when playing with a guitar):
E|-12-|-11-|-10-|-9-|-8-|
B|-9--|-8--|-7--|-6-|-5-|
G|-7--|-6--|-5--|-4-|-3-|
D|-6--|-5--|-4--|-3-|-2-|
A|-7--|-6--|-5--|-4-|-3-|
E|----|----|----|---|---|

E|-------|-------|---------|-------|-------|---------|
B|-----3-|-----3-|-------2-|-----1-|-----0-|---------|
G|---1---|---0---|-----0---|-------|-------|-------2-|
D|-------|-------|---------|---3---|---3---|-----0---|
A|-------|-------|---0-----|-------|-------|---------|
E|-0-----|-4-----|-4-------|-2-----|-3-----|-3-1-----|

E|-------|-------|---------|-------|-------|---------|
B|-----3-|-----3-|-------2-|-----0-|-----0-|-------3-|
G|---1---|---0---|-----0---|-------|-------|-----0---|
D|-------|-------|---------|---2---|---3---|---------|
A|---0---|-------|---0-----|-------|-------|---------|
E|-0-----|-4-----|-4-------|-1-----|-3-----|-3-4-----|

E|-------|-----3-|---------|-----1-|-----0-|-------|
B|-----2-|-------|-------7-|-------|-------|-----3-|
G|---0---|---5---|-----5---|---3---|---3---|---0---|
D|-------|-------|---------|-------|-------|-------|
A|-0-----|-4-----|-4-5-----|-2-----|-3-----|-1-----|
E|-------|-------|---------|-------|-------|-------|

E|-------|-------|---------|-------|-------|---------|
B|-----3-|-----3-|-------2-|-----1-|-----0-|-------3-|
G|---1---|---0---|-----0---|-------|-------|-----0---|
D|-------|-------|---------|---3---|---3---|---------|
A|-------|-------|---0-----|-------|-------|---------|
E|-0-----|-4-----|-4-------|-2-----|-3-----|-3-4-----|

E|-------|-----0-|---------|-----2-|-------|--------4-|
B|-----2-|-------|-------4-|-------|-----6-|----------|
G|---0---|---2---|-----2---|---4---|---4---|-----6----|
D|-------|-------|---------|-------|-------|----------|
A|-0-----|-1-----|-1-2-----|-3-----|-4-----|-4-5------|
E|-------|-------|---------|-------|-------|----------|

(Guitar/ Keys) 
(playing all of these notes are only possible with a keyboard, so i
playing everything except those on the high E string when playing with a guitar):
E|-12-|-11-|-10-|-9-|-8-|
B|-9--|-8--|-7--|-6-|-5-|
G|-7--|-6--|-5--|-4-|-3-|
D|-6--|-5--|-4--|-3-|-2-|
A|-7--|-6--|-5--|-4-|-3-|
E|----|----|----|---|---|

(Guitar/ Violin:)
E|-20v-|-19-15----18v-|-20v-|-20bhr-|-16v-|-18v-|-18bhr-|
B|-----|-------17-----|-----|-------|-----|-----|-------|
G|-----|--------------|-----|-------|-----|-----|-------|
D|-----|--------------|-----|-------|-----|-----|-------|
A|-----|--------------|-----|-------|-----|-----|-------|
E|-----|--------------|-----|-------|-----|-----|-------|

E|-14v-|-15v-|-/20v-|-19-15----18v-|-18bhr-|-14v-|-15v-|
B|-----|-----|------|-------17-----|-------|-----|-----|
G|-----|-----|------|--------------|-------|-----|-----|
D|-----|-----|------|--------------|-------|-----|-----|
A|-----|-----|------|--------------|-------|-----|-----|
E|-----|-----|------|--------------|-------|-----|-----|

E|-12---|-11---|-10---|--9---|-8----|
B|-15bf-|-14bf-|-13bf-|-12bf-|-11bf-|
G|------|------|------|------|------|
D|------|------|------|------|------|
A|------|------|------|------|------|
E|------|------|------|------|------|

************************************

| /  Slide up

************************************
Suggest correction
comments
print report bad tab
2 comments total.
0 reply
wayne71 10 Jul 03, 2010 06:13 PM

pretty good tab but i learned a little differently,this way it gives the overall tone a little more bite and peice like this deserves a lot of bite.

e-x--
b-x--
g------7-------7-------6------5-----4-------2
d----6-------5-------5------3-----3-------0
a--------------------------------------------
E-0-------4------4-5------2-----3-----3-1

i think you get the idea,the hole intro is played on these 3 strings all the way up the neck as it ascends towards the end.awesome song, awesome guitarist.all of mclaughlins stuff is awesome

guest
You may want to rate the tab now too:
select rating
Wanna post a correction for this tab? Suggest correction