Oops, an error
Loading. Please wait.

Ingenuidad Tab

by Maia
52 views 1 this week
no commentswrite comment
1 2 3 4 5
3 more votes to show rating
add to favorites
launch autoscroll
font size
0
reset
how to read this tab
guitar tuner
Autoscroll
slow
fast
+/-
esc
set tempo
stop
Estos son solo el intro, el solo y los riff en orden de toque,
si desean las notas de toda la cancion, en el otro enlace
el de acordes, estan muy bien sacados por Rónel Barbosa
asi que disfruten el tema.

Intro
                Bm/F#                Bm                    F#
|-------------------|-------------------|---------------------|
|-------------------|---------------5---|-----------------7-5-|
|-----4----4----7-6-|-----6----6--------|-4-4-7-4-4-7-4-4-----|
|-4-4--4-4--4-4-----|-4-4--4-4--4-4---7-|---------------------|
|-------------------|-------------------|---------------------|
|-------------------|-------------------|---------------------|
                 Bm
|-------------------|-----------------------------------------|
|-7s8s7-5-----------|-----------------------------------------|
|---------7-6-4-6-4-|------4--7-----4-4-7---4--7-----4--------|
|-------------------|----4------4-4-------4------4-4----------|
|-------------------|-----------------------------------------|
|-------------------|-----------------------------------------|


Solo
                Bm/F#                Bm                    F#
|-------------------|-------------------|---------------------|
|-------------------|---------------5---|-----------------7-5-|
|-----4----4----7-6-|-----6----6--------|-4-4-7-4-4-7-4-4-----|
|-4-4--4-4--4-4-----|-4-4--4-4--4-4---7-|---------------------|
|-------------------|-------------------|---------------------|
|-------------------|-------------------|---------------------|
                 Bm       B7          E       A          D
|-------------------|-----7-7-7-7-7-7---------5-5-7s9-7-5------
|-----5----5----8-7-|-7--7------------8--8-5-8------------8-7--
|-6-6--6-6--6-6-----|--7---------------------------------------
|-------------------|------------------------------------------
|-------------------|------------------------------------------
|-------------------|------------------------------------------
     G            E       F#        Bm
----------------------------------------|
-7--7-8-8-8-8-8-8-5--5--5-7-7--5--5-7---|
--7-------------------6---------6-------| continua de inmediato
----------------------------------------|      lo de abajo
----------------------------------------|
----------------------------------------|
      B7          E       A           D        G           E
|-----7-7-7-7-7-7---------5-5-7s9-7-5--------------------------
|-7--7------------8--8-5-8------------8-7-7--7-8-8-8-8-8-8-5---
|--7---------------------------------------7-------------------
|--------------------------------------------------------------
|--------------------------------------------------------------
|--------------------------------------------------------------
      F#         Bm
|-------------------|-----------------------------------------|
|-5--5-7-7-5--------|-----------------------------------------|
|--6---------7-6-4--|----4--7-----4-4-7---4--7-----4----------|
|-------------------|--4------4-4-------4------4-4------------|
|-------------------|-----------------------------------------|
|-------------------|-----------------------------------------|


Riff1
                Bm/F#                Bm                    F#
|-------------------|-------------------|---------------------|
|-------------------|---------------5---|-----------------7-5-|
|-----4----4----7-6-|-----6----6--------|-4-4-7-4-4-7-4-4-----|
|-4-4--4-4--4-4-----|-4-4--4-4--4-4---7-|---------------------|
|-------------------|-------------------|---------------------|
|-------------------|-------------------|---------------------|
                 Bm
|-------------------|
|-----5----5----8-7-|
|-6-6--6-6--6-6-----|
|-------------------|
|-------------------|
|-------------------|


Riff2
|-----------------------------------------|
|-----------------------------------------|
|----4--7-----4-4-7---4--7-----4----------|
|--4------4-4-------4------4-4------------|
|-----------------------------------------|
|-----------------------------------------|


Igual los riff son repeticion de cositas que iban en el intro
y en el solo, pero se los coloco asi para que no tengan que pensar
SUERTE
Suggest correction
Give kudos to tab author, rate the tab!
1 2 3 4 5
comments
print report bad tab
guest
Wanna post a correction for this tab? Suggest correction