Oops, an error
Loading. Please wait.

No Quererte Tab

19 views 1 this week
no commentswrite comment
1 2 3 4 5
3 more votes to show rating
add to favorites
launch autoscroll
font size
0
reset
how to read this tab
guitar tuner
×
Best way to learn
"No Quererte"
Autoscroll
slow
fast
+/-
esc
set tempo
stop
CON CAPO EN EL 3ER TRASTE

Los trastes se cuentan a partir del capo-traste?


ESTROFA 1:

Yo de afuera ya estoy en paz sin ti, ya pasó, ya sufrí
E|------------------------------------|
B|------------------------------------|
G|-----0------------------------------|
D|-2-4---4-4-4-2-2-0-2-----0-2---0-2--|
A|-----------------------3-----3------|
e|------------------------------------|

No ves hacer mi cuerpo
E|------------------------------------|
B|------------------------------------|
G|----------------0-------------------|
D|-4-4-4-4-s-7--4---2-----------------|
A|------------------------------------|
e|------------------------------------|


Después de haber llorado un río sin hallar lo que soñé
E|---0--------------------------------|
B|-----3-3-1-1-0-0-0--0------------0--|
G|-0--------------------0-2-2-2-0-----|
D|------------------------------------|
A|------------------------------------|
e|------------------------------------|


Un día abrí la puerta Y de tus brazos me escapé.
E|---0--------------------------------|
B|-----3-3-1-1-0-0-0-0--------0-------|
G|-0-------------------0--2v-----2----|
D|------------------------------------|
A|------------------------------------|
e|------------------------------------|


ESTRIBILLO:

No? no llames que no quiero verte, porque yo ya me fui?
E|-3v--3-3-3-3-3-3-2-2-0---0-2-3---3-3-3-----------|
B|---------------------------------------7-s-5-s-3-|
G|-------------------------------------------------|

No? no trates de cambiar la suerte, estás fuera de mí
E|-3v--3-3-3-3-3-3-2-2-0--0-0-0-------|
B|------------------------------3-1-3-|
G|------------------------------------|


Porque yo ya elegí no quererte.
E|------------------------|
B|-3-3-3-1-0-0----0-------|
G|-------------2----2-2-0-|


ESTROFA 2:

Me llevaste hasta el borde del final, porque sí
E|----------------------------------|
B|----------------------------------|
G|-----0----------------------------|
D|-2-4---4-4-4-2-2-0-2-----0-2------|
A|-----------------------3----------|
e|----------------------------------|

Tú robaste mis fuerzas, me empujaste hasta la soledad
E|--------------------------------------|
B|------------------3-3-1-1---0---------|
G|-----0------------------------2-2-p-0-|
D|-2-4---4-4-4-2--2---------2-----------|
A|--------------------------------------|
e|--------------------------------------|

Desperté, descubrí, entendí, aprendí a ver más allá de ti.
E|-------------------------------------------|
B|---------------------------------0---------|
G|---0-2--2-0-2--2-0-2--2-0-2--2-0---2-0---0-|
D|-4-------------------------------------4---|
A|-------------------------------------------|
e|-------------------------------------------|

Existe otro mundo...
E|----------------|
B|---0-0-0-3-3----|
G|-------------0--|
D|-2-----------5v-|
A|----------------|
e|----------------|

-ESTRIBILLO-

FINAL:

Me quiero salvar y quiero olvidarme de tu amor... (No...) (Uh...)
E|----------------------------------------(---5v--7-5-s-7-5v-)-|
B|-0--0-2-3-----0--0-2-3---0--2-3-7v-(8v)-(-3------------------|
G|----------0------------0-------------------------------------|

No? no trates de cambiar la suerte, estás fuera de mí
E|-3v--3-3-3-3-3-3-2-2-0--0-0-0-------|
B|------------------------------3-1-3-|
G|------------------------------------|

Porque yo ya elegí?
E|-------3-3-2---------------------|
B|-3-3-3-------5-s-3-s-5-s-7-5-s-3-|
G|---------------------------------|

No esperes nada, que el río se secó...(Oh...)
E|-0-0---0-0-----------------------------------------|
B|-----3------8-8-8-7-7------------------------------|
G|----------------------9-s-4--(-9-s-7--4-s-2--------|
D|-2-----------------------------------------5-s-2-)-|
Suggest correction
Give kudos to tab author, rate the tab!
1 2 3 4 5
comments
print report bad tab
guest
You may want to rate the tab now too:
select rating
Wanna post a correction for this tab? Suggest correction