Oops, an error
Loading. Please wait.

All The Above Tab

version 2
version 2

Whole song

1,436 views 3 this week
no commentswrite comment
1 2 3 4 5
please rate
add to favorites
launch autoscroll
font size
0
reset
how to read this tab
guitar tuner
Autoscroll
slow
fast
+/-
esc
set tempo
stop
Help us to improve Ultimate-Guitar.com Take our survey!
×
Author
Difficulty
Capo
novice
3rd fret
-------------------------------------------------------------------------------
                             All The Above - Maino
-------------------------------------------------------------------------------
Tabbed by: Tom
Email: tomackerly@gmail.com

Tuning: Standard

Capo 3!!!

The same chords repeat the entire song
You can play it any one of these three ways to your liking

  1 & 2 & 3 & 4 & 1 & 2 & 3 & 4 & 1 & 2 & 3 & 4 & 1 & 2 & 3 & 4 &
e|------------------------------------------------3---------------|
B|1-------------------------------1---------------3---------------|
G|2---------------2---------------0---------------0---------------|
D|2---------------3---------------2---------------0---------------|
A|0---------------3---------------3---------------2---------------|
E|----------------1-------------------------------3---------------|


  1 & 2 & 3 & 4 & 1 & 2 & 3 & 4 & 1 & 2 & 3 & 4 & 1 & 2 & 3 & 4 &
e|3---------------3---------------3---------------3---------------|
B|1---------------1---------------1---------------1---------------|
G|2---------------2---------------0---------------0---------------|
D|2---------------3---------------2---------------0---------------|
A|0-------------------------------3---------------2---------------|
E|------------------------------------------------3---------------|

  1 & 2 & 3 & 4 & 1 & 2 & 3 & 4 & 1 & 2 & 3 & 4 & 1 & 2 & 3 & 4 &
e|----------------------------------------------------------------|
B|----------------------------------------------------------------|
G|--------------------------------5-------------------------------|
D|7----------------3--------------5---------------5---------------|
A|7----------------3--------------3---------------5---------------|
E|5----------------1------------------------------3---------------|
Suggest correction
Give kudos to tab author, rate the tab!
1 2 3 4 5
comments
print report bad tab
guest
You may want to rate the tab now too:
select rating
Wanna post a correction for this tab? Suggest correction