Oops, an error
Loading. Please wait.

Satulaulu Tab

1,183 views 1 this week
no commentswrite comment
1 2 3 4 5
3 more votes to show rating
add to favorites
launch autoscroll
font size
0
reset
how to read this tab
guitar tuner
Autoscroll
slow
fast
+/-
esc
set tempo
stop
Help us to improve Ultimate-Guitar.com Take our survey!
×
This has some echo effect on the record.

Intro
6x
E|------------------------------------------------------|
B|---------7---5--7-----7--5h7----5---------5--------5--|
G|------6-----------6----------------7---------7-------7|
D|----4-------------------------0------7--0-----7---0---|
A|------------------------------------------------------|
D|------------------------------------------------------|


Chorus
4x
E|-------------------------------------------|
B|---------------------------------------3---|
G|-----------------------------------------2-|
D|---4------4-4---3--2---0--0-0-0--0---------|
A|---4------4-4---3--2---0--0-0-0--0---------|
D|---4------4-4---3--2---0--0-0-0--0---------|
                          PM-----|

Intro 6x

Chorus 4x

8x
Play this 7 times.          8th time play this.
E|-------------------------|------------------------|
B|-------------------------|------------------------|
G|-------------------------|------------------------|
D|--------------------4-4--|---------------0-0-0-0--|
A|-----2---2---2---2--3-3--|------2---2----0-0-0-0--|
D|---3---3---3---3--3------|----3---3------0-0-0-0--|
                                         PM-------|

Chorus 8x

Hope you like it!

-Tomche
Suggest correction
Give kudos to tab author, rate the tab!
1 2 3 4 5
comments
print report bad tab
guest
You may want to rate the tab now too:
select rating
Wanna post a correction for this tab? Suggest correction