Oops, an error
Loading. Please wait.

Deja Vu Tab

71 views 1 this week
no commentswrite comment
1 2 3 4 5
please rate
add to favorites
launch autoscroll
font size
0
reset
how to read this tab
guitar tuner
Autoscroll
slow
fast
+/-
esc
set tempo
stop
Help us to improve Ultimate-Guitar.com Take our survey!
×
Author
Band: Major Accident
Song: Deja Vu


tabbbed by jam9383@yahoo.com

Verse/Intro
                                               pick slide\/here intro
e---------------------------------------------------------------------|
B---------------------------------------------------------------------|
G----------------------------------------9-9--7-7-9-------------------|
D--7-7-7-7-7--9-9-9-9-9--10-10-10-10-10--9-9--7-7-9-------------------|
A--7-7-7-7-7--9-9-9-9-9--10-10-10-10-10--7-7--5-5-7-------------------|
E--5-5-5-5-5--7-7-7-7-7--8--8--8--8--8--------------------------------|

Chorus

e---------------------------------------------------------------------|
B---------------------------------------------------------------------|
G---------------------------------------------------------9-9-7-------|
D-7-7-7-7-7-7-7-7--9-9-9-9-9-9-9--10-10-10-10-10-10-10-10-9-9-7-------|
A-7-7-7-7-7-7-7-7--9-9-9-9-9-9-9--10-10-10-10-10-10-10-10-7-7-5-------|
E-5-5-5-5-5-5-5-5--7-7-7-7-7-7-7--8--8--8--8--8--8--8--8--------------|

Bridge

e---------------------------------------------------------------------|
B---------------------------------------------------------------------|
G-------------5-5-5-5-5--9-9-9-9-9--5-5-5-5-5-------------------------|
D--7-7-7-7-7--5-5-5-5-5--9-9-9-9-9--5-5-5-5-5-------------------------|
A--7-7-7-7-7--3-3-3-3-3--7-7-7-7-7--3-3-3-3-3-------------------------|
E--5-5-5-5-5----------------------------------------------------------|

Pre Solo

e---------------------------------------------------------------------|
B---------------------------------------------------------------------|
G---------------------------------------------------------------------|
D---4--4--4--4---5--5--5--5-------------------------------------------|
A---4--4--4--4---5--5--5--5-------------------------------------------|
E---2--2--2--2---3--3--3--3-------------------------------------------|

Solo

e---------------------------------------------------------------------|
B-5-5-5-5-5-5-3-1-0----0-1-3-5-3-1-3-1-0--5-5-5-5-5-5-3-1-0-----------|
G---------------------------------------------------------------------|
D---------------------------------------------------------------------|
A---------------------------------------------------------------------|
E---------------------------------------------------------------------|

e--7-8-10-12-10-8-7-8-7-5---------------------------------------------|
B-------------------------5-5-5-5-5-5-3-1-0----0-1-3-5-3-1-3-1-0------|
G---------------------------------------------------------------------|
D---------------------------------------------------------------------|
A---------------------------------------------------------------------|
E---------------------------------------------------------------------|

e---------------------------------------------------------------------|
B--5-5-5-5-5-5-3-1-0---6-6-8-8-10-10-13-12---7-8-10-10-10p8p7-10-7-5--|
G---------------------------------------------------------------------|
D---------------------------------------------------------------------|
A---------------------------------------------------------------------|
E---------------------------------------------------------------------|

any comments/corrections needed contact me, please rate
Suggest correction
Give kudos to tab author, rate the tab!
1 2 3 4 5
comments
print report bad tab
guest
You may want to rate the tab now too:
select rating
Please do not post tabs as comments. Select "correction" instead!