Oops, an error
Loading. Please wait.

Cold Water Tab

version 2
version 2

Whole song

Interactive

Video

3,973 views 282 this week
no commentswrite comment
1 2 3 4 5
x 4
add to favorites
launch autoscroll
font size
0
reset
how to read this tab
guitar tuner
Autoscroll
slow
fast
+/-
esc
set tempo
stop
Help us to improve Ultimate-Guitar.com Take our survey!
×
Author
About this tab version
Other version has a chord wrong on the tab and there is no version with a capo on 2. Was this info helpful? Yes No
Cold water
key of F#m

capo on 2 

intro and verse riffs

e|------------------------------------------7h8p7-------------
B|---------------------0---------3--------1-------8-----------
G|-------0-----------0---------4--------0---------------------
D|-----2-----------0---------4--------------------------------
A|---2---------------------2----------3-----------------------
E|-0----------3-----------------------------------------------
    Em          G          Bm          C
variation of this are   1
e|------------------------------------------0-----------------
B|---------------------0---------3--------1---1---------------
G|-------0-----------0---------4--------0---------------------
D|-----2-----------0---------4--------------------------------
A|---2---------------------2----------3-----------------------
E|-0----------3-----------------------------------------------
    Em          G          Bm          C

and
e|------------------------------------------0-----------------
B|---------------------0---------3--------1---3---------------
G|-------0-----------0---------4--------0---------------------
D|-----2-----------0---------4--------------------------------
A|---2---------------------2----------3-----------------------
E|-0----------3-----------------------------------------------
    Em          G          Bm          C

strum the chords for the prechorus


synth bit for chorus
e|-----------------------------------------------------------
B|--5-3--------0------0------------0-------------------------
G|------4----0------2---2-------2-----2----------------------
D|---------0--------------0-------------0--------------------
A|-----------------------------------------------------------
E|-----------------------------------------------------------
Suggest correction
comments
print report bad tab
guest
You may want to rate the tab now too:
select rating
Wanna post a correction for this tab? Suggest correction