Oops, an error
Loading. Please wait.

Cold Water Tab

version 3
version 3

Whole song

Interactive

Video

403 views 30 this week
no commentswrite comment
1 2 3 4 5
3 more votes to show rating
add to favorites
launch autoscroll
font size
0
reset
how to read this tab
guitar tuner
Autoscroll
slow
fast
+/-
esc
set tempo
stop
Help us to improve Ultimate-Guitar.com Take our survey!
×
Author
Difficulty
Capo
intermediate
9th fret
-------------------------------
       CAPO ON 9TH FRET
-------------------------------

[Intro & Verse]

   F#m          A                C#m          D
e|------------x------------9-x-|-----------x--------------10-x--------|
B|---------10-x--------------x-|-----------x-----------------x-10-----|
G|------11----x----------9---x-|---------9-x-----------------x------9-|
D|---11-------x-------11-----x-|------11---x-----------12----x--------|  
A|-9----------x-12-----------x-|---11------x--------12-------x--------| 
E|------------x--------------x-|-9---------x--10-------------x--------|


   F#m          A                C#m          D
e|------------x------------9-x-|-----------x-----------------x--------|
B|---------10-x--------------x-|-----------x-----------------x--------|
G|------11----x----------9---x-|---------9-x--------------11-x--------|
D|---11-------x-------11-----x-|------11---x-----------12----x-12-----|  
A|-9----------x-12-----------x-|---11------x--------12-------x-----12-| 
E|------------x--------------x-|-9---------x--10-------------x--------|


[Entering Chorus]
   E
e|-x---------------------------|--------------------------------------|
B|-11--------------------------|--------------------------------------|
G|-9---------------------------|--------------------------------------|
D|-9---------------------------|--------------------------------------|  
A|-11--------------------------|--------------------------------------| 
E|-12--------------------------|--------------------------------------|


[Chorus]

   F#m          A                C#m          D
e|-14-----12----9------------9-|-x-----9-------x-----------9----------|
B|-10-----------10--------10---|-12------12----10----12------12-------|
G|-11-----------9-----9-9------|-9-------------11---------------------|
D|-11-----------11-------------|-11------------12---------------------|  
A|-9------------12-------------|-11------------9----------------------| 
E|-9------------9--------------|-9-------------10---------------------|
   

   F#m          A                C#m          D
e|-9------------x------------9-|-x-----9-------x-----------9----------|
B|-10-----10----12--------10---|-12------12----10----12------12-------|
G|-11-----------9-----9-9------|-9-------------11---------------------|
D|-11-----------11-------------|-11------------12---------------------|  
A|-9------------12-------------|-11------------9----------------------| 
E|-9------------9--------------|-9-------------10---------------------|
Suggest correction
Give kudos to tab author, rate the tab!
1 2 3 4 5
comments
print report bad tab
guest
You may want to rate the tab now too:
select rating
Wanna post a correction for this tab? Suggest correction