Oops, an error
Loading. Please wait.

Cold Water tab

version 4
version 4

Whole song

  • Other version has a chord wrong on the tab and the... Show more
  • Full fingerstyle arrangement by andrew foy.

Interactive

Video

5,899 views 72 this week
2 commentsread comments
1 2 3 4 5
x 4
add to favorites
×
Save as Personal and add changes to this tab that will be seen only by you. Learn more ›
×
You can save this tab as Personal to edit and correct it or add notes. All changes will be seen only by you. Learn more »
launch autoscroll
font size
0
reset
how to read this tab
guitar tuner
edit
Autoscroll
slow
fast
+/-
esc
set tempo
stop
About this tab version
Full fingerstyle arrangement by andrew foy. Was this info helpful? Yes No
Andrew Foy's Arrangement
https://www.youtube.com/watch?v=OAyPvf-gsdg&feature=youtu.be

[Intro]
e|--------------------------------------------7h8p7-------------------------------|
B|-----0---0-0-0-0--0h1-0------------3--------------8------0---0-0--0------0h3-0--|
G|-----0------------------0---------4------5---------------0--------0-2p0---------|
D|--------------------------2-0----4------5---------------------------------------|
A|--------------------------------2-----3-----------------------------------------|
E|--0----0----------3-----------------------------------0----0------3-------------|

e|--------------------------0---0-------------------------------------------------|
B|----3------5----------------3----0--------------------3------5------------------|
G|---4------5---5\----0------------0----------2p0-0----4------5---5\-----0----0h2-|
D|--4------5----------2---------------(0)-------------4------5-----------2--------|
A|-2-----3-------------------------------------------2-----3----------------------|
E|------------------0----0---------3------(3)--------------------------0----0-----|

e|------------------------------<12>----------------------------------------------|
B|-0-0----------------3-----------------------------------------------------------|
G|---0--2-2-0--0-----4-----(0)----------------------------------------------------|
D|------------------4-------------------------------------------------------------|
A|-----------------2-----x--------------------------------------------------------|
E|---3-------------------x-------8------------------------------------------------|

[Prechorus]
          o               o              o             o               o
e|---------------0h2--0---0-------------------------------------------------------|
B|---0-3--3/5--------(0)-(0)-3----0-----------------------------------------------|
G|-0------0----------(0)--------------0---------4-----------------------------4---|
D|---------------------------------------5/7-----------4/7-------------5/7--------|
A|-------------x------x---------x-----x--3/5--x----x--------10-x--7\5-------x---x-|
E|--------0----x------x---3-----x-----x-------x----x---5/8-----x----x--0----x---x-|

   o               o                o           o              o              o
e|-----------------------------<12>-------------------0h2--0---0------------------|
B|----------------------------------------0-3--3/5--------(0)-(0)-3----0----------|
G|-0h2-0-----------2----<7>-----------0---------0---------(0)--------------0------|
D|-0--------2--0---0-0------0-------------------------------------------------5/7-|
A|-------x-----x---------x------x---3---x---x-------x------x---------x-----x--3/5-|
E|-3-----x-----x---------x------x-------x---x---0---x------x---3-----x-----x------|

           o               o           o                o
e|------------------------------------------------------------------<12>----------|
B|------------------------------------------------------------------------0-------|
G|--4-----------------------------4----0h2-0------------2----<7>---------------2-0|
D|---------4/7-------------5/7---------0---------2--0---0-0-------0---------0-----|
A|x----x--------10-x--7\5-------x---x---------x-----x---------x-------x-3---------|
E|x----x---5/8-----x----x--0----x---x--3------x-----x---------x-------x-----------|

e|--------------------------------------------------------------------------------|
B|--------------------------------------------------------------------------------|
G|-0h2----------------------------------------------------------------------------|
D|-0------------------------------------------------------------------------------|
A|------x-x-x---------------------------------------------------------------------|
E|------x-x-x---------------------------------------------------------------------|

[Chorus]
   o                             o           o             o
e|------------0-------------------------------------------------(0)---------------|
B|-3/5--3--------0--(0)-----------------------------------------(0)---------------|
G|---------------0--(0)--0----0--0h2---2/4\2-0-0h2-2/4\2-0-0----(0)---------------|
D|-----------------------0h2-----0---------------------------h2-------------------|
A|---------x---------x---x-----------------x-3---------x-----h2----x--------------|
E|-0-------x-----3---x---x-----------------x-----------x---0-------x--------------|
 
                     o          o                                 o          o
e|-------(0)-----------------------------------0------0-----(0)-------------------|
B|-------(0)-----------------------------------0--3------0--(0)-------------------|
G|--0h2--(2)-------0-0h2--2/4\2-0-0h2-2/4\2-0--0---------0--(0)------0----0--0h2--|
D|-------------------0-------------------------2---------------------0h2-----0----|
A|-----------x--x-------------x-3---------x----2----x-----------x----x------------|
E|--3--------x--x-------------x-----------x----0----x----3------x----x------------|

          o                                         o          o
e|-----------------------0--(0)--------(0)----------------------------------------|
B|-----------------------0--(0)--------(0)----------------------------------------|
G|--2/4\2-0-0h2-2/4\2-0--0--(0)----0h2-(2)--------0-0h2--2/4\2-0-0h2-2/4\2-0------|
D|-----------------------2--------------------------0-----------------------------|
A|------x-3---------x----2------x-----------x--x-------------x-3---------x--------|
E|------x-----------x----0------x--3--------x--x-------------x-----------x--------|

 [Verse]
e|--------------------------------------<12>--7h8p7-------------------------------|
B|-----0---0-0---0h1-0------------3-----------------8------0---0-0--0h1-0--0h3-0--|
G|-----0---------0-----0---------4----0--------------------0--------0---0---------|
D|-----------------------2-0----4-------------------------------------------------|
A|-----------------------------2----x---------------------------------------------|
E|--0----0-------3------------------x----8--------------0----0------3-------------|

e|--------------------------0---0-------------------------------------------------|
B|----3------5----------------3----0--------------------3------5------------------|
G|---4------5---5\----0------------0----------2p0-0----4------5---5\-----0----0h2-|
D|--4------5----------2---------------(0)-------------4------5-----------2--------|
A|-2-----3-------------------------------------------2-----3----------------------|
E|------------------0----0---------3------(3)--------------------------0----0-----|

e|------------------------------<12>----------------------------------------------|
B|-0-0----------------3-----------------------------------------------------------|
G|---0--2-2-0--0-----4-----(0)----------------------------------------------------|
D|------------------4-------------------------------------------------------------|
A|-----------------2-----x--------------------------------------------------------|
E|---3-------------------x-------8------------------------------------------------|

[Prechorus]
e|---------------0h2----0---------------------------------------------------------|
B|---0-3-3/5------------0--3-----0------------------------------------------------|
G|-0--------------------------------0--------4---------------------------4----0h2-|
D|-------------------0-----------------5/7---------4/7-------------5/7--------0---|
A|-------------------------------------3/5-5---5--------10----7\5-----------------|
E|-------0----0---------3-----3--------------------5/8-----8-------0---0---0--3---|

e|----------------------------<12>--------------------------0h2------0------------|
B|---------0---------------------------------0--3--3/5---------------0--3----0----|
G|-0-----------2------<7>---------------0---------------------------------------0-|
D|------2------0---0-------0--------------------------------------0---------------|
A|-----------------------------------3----3---------------------------------------|
E|----3--------------------------------------------0-----0-----------3-----3------|

e|--------------------------------------------------------------------------<12>--|
B|---------------------------------------------------------0----------------------|
G|--------4-----------------------------4-----0h2--0----------2-----<7>-----------|
D|--5/7---------4/7-------------5/7-----------0---------2-----0--0-------0--------|
A|--3/5-5----5-------10----7/5----------------------------------------------------|
E|--------------5/8-----8-------0----0-----0--3-------3---------------------------|

e|--------------------------------------------------------------------------------|
B|----0---------------------------------------------------------------------------|
G|---------2-0--0h2---------------------------------------------------------------|
D|--------------0-----------------------------------------------------------------|
A|-3----3-------------------------------------------------------------------------|
E|--------------------------------------------------------------------------------|

[Chorus]
                                         o           o             o
e|---------------------------(0)----------------------------------------(0)-------|
B|-0----------------------0--(0)----------------------------------------(0)-------|
G|----2--0--/9--7-----9---0--(0)-0----0--0h2---2/4\2-0-0h2-2/4\2-0-0----(0)-------|
D|---(0)-------------------------0h2-----0---------------------------h2-----------|
A|----x-----/7-----x-------------x-----------------x-3---------x-----h2----x------|
E|----x-----/8-----x------3------x-----------------x-----------x---0-------x------|

                     o          o                                 o          o
e|-------(0)-----------------------------------0------0-----(0)-------------------|
B|-------(0)-----------------------------------0--3------0--(0)-------------------|
G|--0h2--(2)-------0-0h2--2/4\2-0-0h2-2/4\2-0--0---------0--(0)------0----0--0h2--|
D|-------------------0-------------------------2---------------------0h2-----0----|
A|-----------x--x-------------x-3---------x----2----x-----------x----x------------|
E|--3--------x--x-------------x-----------x----0----x----3------x----x------------|

          o                                         o          o
e|-----------------------0--(0)--------(0)----------------------------------------|
B|-----------------------0--(0)--------(0)----------------------------------------|
G|--2/4\2-0-0h2-2/4\2-0--0--(0)----0h2-(2)--------0-0h2--2/4\2-0-0h2-2/4\2-0------|
D|-----------------------2--------------------------0-----------------------------|
A|------x-3---------x----2------x-----------x--x-------------x-3---------x--------|
E|------x-----------x----0------x--3--------x--x-------------x-----------x--------|

 [Bridge]
e|-----------------0--------------------0----------------------------0-----3------|
B|----3/5-3/5------0-3-0-----0-3-0---------3-0-----0-3-0-----0-------3-----3------|
G|---0--------------------2---------------------2----------0----2-0--2--2--2--2---|
D|-------------0-----------------------------------------------------0-----0------|
A|-------------------------------2---3--------------------------------------------|
E|-0---------------3-----------------------------------0-3------------------------|

                o               o              o            o              o
e|--0-----3---------------------0---------------------------0---------------------|
B|--3-----3-----3/5--3/5--------0-3-0-----0-3--0---------------3-0-----0-3-0------|
G|--0--0--0--0-------------------------2-------------(0)------------2-------------|
D|---------------------------0----------------------------------------------------|
A|--3-----3----------x----x------------x----x--2---x-----x--3-------x----x--------|
E|--------------0----x----x-----3------x----x------x-----x----------x----x-0------|

               o
e|------------------7------5--(3)---5--5---5/7--7--------7------------------------|
B|----------------------------(0)---3--3--------5--------5------------------------|
G|----(0)---------------------------4--4--------5--------5------------------------|
D|----(0)---------------------------2-----------5--------5------------------------|
A|-x-------x------------x------x----2------x-------x--x---------------------------|
E|-x-------x---3--------x------x-----------x-------x--x---------------------------|

[Chorus]
                                   o            o                o
e|-------------------(0)------------------------------------------------(0)-------|
B|----------------0--(0)------------------------------------------------(0)-------|
G|--/9--7-----9---0--(0)--0-----0--0h2---2/4\2--0--0h2-2/4\2--0--0------(0)-------|
D|--/7--------------------0h2------0--------------------------------h2------------|
A|---------x--------------x------------------x--3----------x--------h2-----x------|
E|---------x------3-------x------------------x-------------x-----0---------x------|

                     o          o                                 o          o
e|-------(0)-----------------------------------0------0-----(0)-------------------|
B|-------(0)-----------------------------------0--3------0--(0)-------------------|
G|--0h2--(2)-------0-0h2--2/4\2-0-0h2-2/4\2-0--0---------0--(0)------0----0--0h2--|
D|-------------------0-------------------------2---------------------0h2-----0----|
A|-----------x--x-------------x-3---------x----2----x-----------x----x------------|
E|--3--------x--x-------------x-----------x----0----x----3------x----x------------|
 
          o              o                            o          o                                           
e|----------------------------(0)---------(0)-------------------------------------|
B|----------------------------(0)---------(0)-------------------------------------|
G|--2/4\2-0-0h2-2/4\2-0--0----(0)----0h2--(2)-------0-0h2--2/4\2-0-0h2-2/4\2-0----|
D|-------------------------h2-------------------------0---------------------------|
A|------x-3---------x------h2-----x-----------x--x-------------x-3---------x------|
E|------x-----------x----0--------x--3--------x--x-------------x-----------x------|

 [Outro] 
e|-----3------------7---------------------------------3---------7-----------------|
B|----0------------0-------------3--------5----------0---------0--------3-----5---|
G|---0-------0----0-------------4--------5----------0-----0---0--------4-----5----|
D|------------------------0----4--------5-----------------------------4-----5-----|
A|--------x------------x------2-----x--3------x---------x---------x--2-----3------|
E|-0------x-----3------x------------x---------x---0-----x---3-----x---------------|

************************************

| x   Dead note
|(n) Ghost note
| h   Hammer-on
| p   Pull-off
| /   Slide up
| \   Slide down
| o   Wrist thump
| <->  Harmonic

************************************

            
            
Suggest correction
Creating personal tab
Creating personal tab
You can edit any tab online and save it as your Personal.

You can edit, replace or remove any tab part or add personal notes – all changes will be seen only by you.

Personal tabs can be accessed anytime from any device, even offline.
Learn more »
comments
print report bad tab
2 comments total.
+1 reply
gluck 10 May 09, 2017 11:21 PM

HI thanks! 5 stars!
excuse me... no speak english
thanks thanks...

+1 reply
gluck 10 Jun 06, 2017 10:07 PM

¡Genial! Esta ya también me la aprendí, suena genial; Gracias por la tab.

guest
You may want to rate the tab now too:
select rating
Wanna post a correction for this tab? Suggest correction