Oops, an error
Loading. Please wait.

Run Up Tab

583 views 18 this week
no commentswrite comment
1 2 3 4 5
3 more votes to show rating
add to favorites
launch autoscroll
font size
0
reset
how to read this tab
guitar tuner
×
Best way to learn
"Run Up"
Autoscroll
slow
fast
+/-
esc
set tempo
stop
Author
Difficulty
  follow
intermediate
MAIN Riff

[Intro] 0:00
e|------5-----4--|-----0-----2---|
B|------5-----5--|-----0-----4---|
G|------6-----6--|-----1-----4---|
D|---------------|---------------|
A|---7--------4--|---2-------2---|
E|-5-------------|-0-------------|

[Verse\Chorus\Outro] Play from 0:04 to 1:52 then a bridge without guitar and then start from 2:09
                                    X6
e|------5--5---4--|-----0--0---2---|
B|------5--5---5--|-----0--0---4---|
G|------6--6---6--|-----1--1---4---|
D|----------------|----------------|
A|---7---------4--|---2--------2---|
E|-5--------------|-0--------------|

e|------5--5---4--|
B|------5--5---5--|
G|------6--6---6--|
D|----------------|
A|---7---------4--|
E|-5--------------|
                                   X10
e|------5--5---4--|-----0--0---2---|
B|------5--5---5--|-----0--0---4---|
G|------6--6---6--|-----1--1---4---|
D|----------------|----------------|
A|---7---------4--|---2--------2---|
E|-5--------------|-0--------------|

e|------5--5---4--|
B|------5--5---5--|
G|------6--6---6--|
D|----------------|
A|---7---------4--|
E|-5--------------|

                                   X4
e|------5--5---4--|-----0--0---2---|
B|------5--5---5--|-----0--0---4---|
G|------6--6---6--|-----1--1---4---|
D|----------------|----------------|
A|---7---------4--|---2--------2---|
E|-5--------------|-0--------------|

[Then bridge] 

[Start from 2:09]
                                   X4
e|------5--5---4--|-----0--0---2---|
B|------5--5---5--|-----0--0---4---|
G|------6--6---6--|-----1--1---4---|
D|----------------|----------------|
A|---7---------4--|---2--------2---|
E|-5--------------|-0--------------|

Choir effect on background in chorus

[Chorus] 0:39/1:32, at 2:45 play from second bar
                                                                                           X2
e|----------16-16--------|--------------------|---------------------|---------------------|
B|---17h19----------/14--|--19p17-19p17-------|--19p17-19p17---/14--|--19p17-19p17--------|
G|-----------------------|---------------/16--|---------------------|---------------/16---|
D|-----------------------|--------------------|---------------------|---------------------|
A|-----------------------|--------------------|---------------------|---------------------|
E|-----------------------|--------------------|---------------------|---------------------|


[Bridge] Background part 2:26
                             X2
e|--/21--21---------/19--19--|
B|---------------------------|
G|---------------------------|
D|---------------------------|
A|---------------------------|
E|---------------------------|
                    
                             X2
e|---------------------------|
B|---------------------------|
G|--/18--18--------/16--16---|
D|---------------------------|
A|---------------------------|
E|---------------------------|

[Outro] Solo part at 3:02 
e|---------21--21-|---19--16-----|-------19--19-|-----------------||
B|----------------|-----------19-|--------------|-19--19--17p16---| |
G|---/18----------|--------------|--/16---------|-----------------| |
D|----------------|--------------|--------------|-----------------| |
A|----------------|--------------|--------------|-----------------| |
E|----------------|--------------|--------------|-----------------| |
                                                                    | X2
e|---------21--21-|---19--16-----|-------19--19-|-----------------| |
B|----------------|-----------19-|--------------|-----------------| |
G|---/18----------|--------------|--/16---------|-----------------| |
D|----------------|--------------|--------------|-16--16--14p13---| |
A|----------------|--------------|--------------|-----------------| |
E|----------------|--------------|--------------|-----------------||

***********************************

| h   Hammer-on
| p   Pull-off
| /   Slide up

************************************
Suggest correction
Give kudos to tab author, rate the tab!
1 2 3 4 5
comments
print report bad tab
guest
You may want to rate the tab now too:
select rating
Wanna post a correction for this tab? Suggest correction