Oops, an error
Loading. Please wait.

I Dont Like You Whatsoever Tab

version 1
version 1

Whole song

4,135 views 1 this week
no commentswrite comment
1 2 3 4 5
x 4
add to favorites
launch autoscroll
font size
0
reset
how to read this tab
guitar tuner
Autoscroll
slow
fast
+/-
esc
set tempo
stop
Help us to improve Ultimate-Guitar.com Take our survey!
×
Author
Difficulty
novice
------------------------------------------------------------------------------
         I Don't Like You, Whatsoever - Major League 
-----------------------------------------------------------------------------


Tabbed by: Bwandonnortiz.
Email: bwandonn@gmail.com

Tuning:Standard 


Intro (x4)
e---------------------------------------------------------------------|
B---------------------------------------------------------------------|
G----6--6-----6--6------5-5-5\6--6--6-----6--6------101010\6----------|
D----x--x-----x--x------x-x-x\x--x--x-----x--x------x-x-x-\x----------| 
A----4--4-444-4--4-444--3-3-3\4--4--4-444-4--4-444--8-8-8-\4----------|
E---------------------------------------------------------------------|
          ...      ...                ...      ...


Verse (same as intro)


Chorus (x2)
e|--------------------------------------------------------------------|
B|--------------------------------------------------------------------|
G|----6------8------10-------8------10------13------------------------|
D|----x-(x7)-x-(x4)-x-(x3)---x-(x7)-x-(x4)--x--(x3)-------------------|
A|----4------6------8--------6------8-------11------------------------|
E|--------------------------------------------------------------------|
                                                                        
e|--------------------------------------------------------------------|
B|--------------------------------------------------------------------|
G|----6------6--6---6--6--6-------------------------------------------|
D|----x-(x3)-x--x---x--x--x-(x3)--------------------------------------|
A|----4------4--4---4--4--4----------------------------------3(x4)----|
E|-------------------------------0000-0-00-0-0-0-1\3-0-(x2)--1--------|
                                 ...    ..   .


Bridge 
e|--------------------------------------------------------------------|
B|--------------------------------------------------------------------|
G|--------------------------------------------------------------------|
D|--------------------------------------------------------------------|
A|---------------------------------------------------------------333--|
E|---0-0--0-0--00-00--0-0--0-0-1\3\1\3-0-0--0-0--00-00--0-0--0-0-111--|
     . .  . .  .. ..  . .  . .         . .  . .  .. ..  . .  . .


Outro
e|---------------------------------------------------------------------|
B|---------------------------------------------------------------------|
G|---6--6-----6--6------5-5-5\6--6--6-----6--6------101010\6-Until end-|
D|---x--x-----x--x------x-x-x\x--x--x-----x--x------x-x-x-\x-----------| 
A|---4--4-444-4--4-444--3-3-3\4--4--4-444-4--4-444--8-8-8-\4-----------|
E|---------------------------------------------------------------------|
          ...      ...                ...      ...   

Ending
e|--------------------|
B|--------------------|
G|---6--6-----6--6----|
D|---x--x-----x--x----|
A|---4--4-444-4--4----|
E|--------------------|
          ...
Suggest correction
comments
print report bad tab
guest
You may want to rate the tab now too:
select rating
Wanna post a correction for this tab? Suggest correction