Oops, an error
Loading. Please wait.

Ya Tienes Que Saber Tab

by Majua
5 views 1 this week
no commentswrite comment
1 2 3 4 5
3 more votes to show rating
add to favorites
launch autoscroll
font size
0
reset
how to read this tab
guitar tuner
Autoscroll
slow
fast
+/-
esc
set tempo
stop
Bueno esta es la version acustica

ahi va la tablatura hahahaha...=)


Intro: 0:00

       A     -    E   -     F#m -      D

E/------------------------2--4--2----2--0--2--
B/-2--0---2----0--2--0----2--2--2----3--3--3--
G/-2--2---2----1--1--1---------------2--2--2--
D/-2--2---2----2--2--2---------------0------0-
A/-0------0----2--2--2----4-----4-------------
E/------------------------2-----2-------------


                          A

E/--0-----0----0------0---0------------------
B/----2-----2----2------2---2---------------
G/------2-----2----2------2---2-------------
D/-----------------2----------------------
A/--0---------------------------------------
E/------------------------------------------


0:12
Guitarra 1: arpegiando igual que en intro 0:00
Guitarra 2: guitarra ritmica siguiendo
            las notas del arpegio:
A - E6 - F#m - D - A


0:25
ambas guitarras

A - E - F#m - D
A - E - F#m - D - A


En las estrofas va un arpegio Guitarra 1:


     A        E       F#m         D

E/--0--------0--------1-----------2---------
B/----2--------0---------1-----------3-------
G/------2--------1---------1------------2-----
D/--------------------------------0------------
A/--0-----------------4-----------------------
E/-----------0--------2-----------------------


Mientras la guitarra 2 sigue los acordes del tema:  A - E F#m - D


Verso 1:
0:36

A  E          F#m   D
 Te tengo que decir
A  E             F#m   D
 Que muero por un beso
A   E          F#m    D
 Hoy tengo que decir
A   E               F#m     D
 Que quiero que estes aqui


Riff: guitarra ritmica:

A - E

verso 2:
0:57

guitarra 1: arpegiando como en verso 1:


A      E          F#m       D
 Ay me gustaria que supieras
A      E       F#m        D
 Que voy a enloquecer sin ti
A      E          F#m           D
 Ay me encantaria que entendieras
A      E          F#m             D
Que algo muy fuerte siento yo por ti


Precoro:
1:15
Bm                           E
 No se ni como ni cuando entraste en mi
Bm                         E
 Pero te pienso y soy tan feliz


Coro 1:
1:23
     D     E        A
Ya tienes que saber...
               E                   F#m
Que con una palabra y solo con la mirada
              D                         A
Si tu te me acercas yo me muero de amor
              E                    F#m
Que con una palabra y solo con la mirada
              D                       A - E - D - F#m - E - D
Si tu te me acercas sabes que quiero yo... sabes que me muero de amor


A - E


Verso3: 1:45
A      E          F#m
Yo necesito un abracito bien chiquitico
D
Pero bien lleno de amor
A         E        F#m
Yo necesito un abracito bien chiquitico
D         A     E        F#m      D
Para sentir tu calor

A      E          F#m       D
Pero bien lleno de amor


A - E


Precoro: 2:06

D                E
eso es todo lo que quiero yo
F#m
y si tu lo quieres
E                     D         A - E - F#m - D
Bienvenida a tu nuevo corazon

G/-2s4-2---------
D/---------2-2s4-

A - E - F#m - D
... tu nuevo corazon

A - E

Coro2: 2:26
A
No le temas a la vida
E                   F#m
no le temas al amor
           D
no le temas a tomar una decision
A
no le temas al pasado
E                     F#m
que eso atras quedo
            D                    A - E - F#m - D
no le temas a buscar una nueva ilusion......
A - E - F#m - D
una nueva ilusion


A - E


2:47
D                      E
Te regalo esta cancion
F#m                  A   E
no la guardes en un cajon
D            A
y por si fuera poco
E      -      E               A - E - F#m - D
te regalo mil besos para ti....
A - E - F#m - D
mil besos para ti


Final:
A - E - A
Suggest correction
Give kudos to tab author, rate the tab!
1 2 3 4 5
comments
print report bad tab
guest
You may want to rate the tab now too:
select rating
Wanna post a correction for this tab? Suggest correction