Oops, an error
Loading. Please wait.

Once You Killed A Cow You Gotta Make A Burger Bass Tab

version 1
version 1

Whole song

Interactive

303 views 1 this week
no commentswrite comment
1 2 3 4 5
please rate
add to favorites
launch autoscroll
font size
0
reset
guitar tuner
Autoscroll
slow
fast
+/-
esc
set tempo
stop
Help us to improve Ultimate-Guitar.com Take our survey!
×
Contributor
Tuning
mariewong 2,093
D A D G B E
-------------------------------------------------------------------------------
       ONCE YOU KILLED A COW, YOU GOTTA MAKE A BURGER - Make Me Famous.
-------------------------------------------------------------------------------

Tabbed By : mariewong.





Tuning: Drop D.





[00:02]

G|-----------------------------------------------------|
D|-----------------------------------------------------|
A|-----------------------------------------------------|
D|--00-0-00-00-00000--000-0-00-000-0-00-000-0-0-000-0--|

G|---------------------------------------------------------------|
D|---------------------------------------------------------------|
A|---------------------------------------------------------------|
D|--00-0-00-00-00000--000-0-0-000-0-0-000-0-0-0-0-000-0-0-000-0--|

G|-----------------------------------------------------|
D|-----------------------------------------------------|
A|-----------------------------------------------------|
D|--00-0-00-00-00000--000-0-00-000-0-00-000-0-0-000-0--|

G|---------------------------------------------------------------|
D|---------------------------------------------------------------|
A|---------------------------------------------------------------|
D|--00-0-00-00-00000--000-0-0-000-0-0-000-0-0-0-0-000-0-0-000-0--|


[00:19]

G|---------------------|
D|---------------------|
A|---------------------|   [x2]
D|--0~---0~---8~---5~--|


[00:35]

G|-----------------------------------|          |-------|
D|-----------------------------------|          |-------|
A|-----------------------------------|   [x2]   |-------|
D|--0(x12)--3(x12)--8(x12)--10(x12)--|          |--12\--|


[00:54]

G|----------------------------------------------------|
D|----------------------------------------------------|
A|----------------------------------------------------|   [x2]
D|--0-0-000-0--0-0-0--000-00--0-0-000-0--0-0-0-0-000--|

G|---------------------------------------|
D|---------------------------------------|
A|---------------------------------------|
D|--1-1-111-1--1-1-1--111-11--1-1-111-1--|

G|----------------------------------------------------|
D|----------------------------------------------------|
A|----------------------------------------------------|
D|--0-0-000-0--0-0-0----0-0-000-0--0-0-0-0-000-0--5~--|

G|----------------------|
D|----------------------|
A|----------------------|
D|--5-5-5-5---55555555--|


[01:30]

G|---------------------------|
D|---------------------------|
A|---------------------------|   [x4]
D|--8(x12)--10(x12)--0(x24)--|


[02:04]

G|---------------------|
D|---------------------|
A|---------------------|
D|--0~---0~---0~---0~--|


[02:20]

G|----------------------------------------|
D|----------------------------------------|
A|----------------------------------------|   [x3]
D|--0000-000-00-000-0000-000-00000-00000--|

G|------------------------------------|
D|------------------------------------|
A|------------------------------------| 
D|--0000-000-00-000-0000-000-00000-0--|

G|----------------------------------------|
D|----------------------------------------|
A|----------------------------------------|   [x2]
D|--1111-111-11-111-1111-111-11111-11111--|

G|----------------------------------------|
D|----------------------------------------|
A|----------------------------------------|   [x2]
D|--0000-000-00-000-0000-000-00000-00000--|





| /  slide up
| \  slide down
| h  hammer-on
| p  pull-off
| ~  vibrato
| +  harmonic
| x  Mute note
===============================================================================
Suggest correction new What's this?
You can suggest a correction to this tab. Community and Mods will review your correction and vote to approve or reject it.
comments
We did not receive enough feedback on this tab! Please rate:
print report bad tab
1 2 3 4 5
guest
You may want to rate the tab now too:
select rating
Please do not post tabs as comments. Select "correction" instead!