Oops, an error
Loading. Please wait.

Heat Wave tab

version 2
version 2

Whole song

  • Watch the music vid to see the weird jazzy chord s... Show more
109 views 3 this week
no commentswrite comment
1 2 3 4 5
3 more votes to show rating
add to favorites
×
Save as Personal and add changes to this tab that will be seen only by you. Learn more ›
×
You can save this tab as Personal to edit and correct it or add notes. All changes will be seen only by you. Learn more »
launch autoscroll
font size
0
reset
how to read this tab
guitar tuner
edit
Autoscroll
slow
fast
+/-
esc
set tempo
stop
About this tab version
Watch the music vid to see the weird jazzy chord shape he uses throughout the song, and to get a feel for the strumming pattern. https://www.youtube.com/watch?v=jUdZ6cLc3Mg God bless :). Was this info helpful? Yes No
[Intro] 
D |---x--0---7---0--------x--9--0--0----------5-5-5-5-5-5-5-0-----------------|
A |---7--0---0---0--------0--0--0--0----------5-5-5-5-5-5-5-0-----------------|
F#|---6--6---6---6--------8--8--8--0----------5-5-5-5-5-5-5-0-----------------| X 4
D |---7--7---7---7--------9--9--9--0----------5-5-5-5-5-5-5-0-----------------|
A |---x--x---x---x--------x--x--x--0----------5-5-5-5-5-5-5-0-----------------|
D |7--7--7---7---7--------9--9--9--0----------5-5-5-5-5-5-5-0-----------------|

[Verse] 
*Little embelishments here and there on the 2nd string, 2nd fret with pinky finger*
D |--x---------------5--------------------------------------------------------|
A |--x---------------5--------------------------------------------------------|
F#|--1--(X 12)-------5--(X 12)------------------------------------------------| X 2
D |--2---------------5--------------------------------------------------------|
A |--x---------------5--------------------------------------------------------|
D |--2---------------5--------------------------------------------------------|
 
[Chorus] 
D |--x---------------x--------0-------5---------------------------------------|
A |--x---------------x--------0-------5---------------------------------------|
F#|--6--(X 7)--------8--(X 3)-0-------5--(X 12)-------------------------------| X 2
D |--7---------------9--------0-------5---------------------------------------|
A |--x---------------x--------0-------5---------------------------------------|
D |--7---------------9--------0-------5---------------------------------------|

[Instrumental] 
D |---x--0---7---0--------x--9--0--0----------5-5-5-5-5-5-5-0-----------------|
A |---7--0---0---0--------0--0--0--0----------5-5-5-5-5-5-5-0-----------------|
F#|---6--6---6---6--------8--8--8--0----------5-5-5-5-5-5-5-0-----------------| X 4
D |---7--7---7---7--------9--9--9--0----------5-5-5-5-5-5-5-0-----------------|
A |---x--x---x---x--------x--x--x--0----------5-5-5-5-5-5-5-0-----------------|
D |7--7--7---7---7--------9--9--9--0----------5-5-5-5-5-5-5-0-----------------|

[Verse] 
*Little embelishments here and there on the 2nd string, 2nd fret with pinky finger*

D |--x---------------5--------------------------------------------------------|
A |--x---------------5--------------------------------------------------------|
F#|--1--(X 12)-------5--(X 12)------------------------------------------------| X 2
D |--2---------------5--------------------------------------------------------|
A |--x---------------5--------------------------------------------------------|
D |--2---------------5--------------------------------------------------------|
 
[Chorus]

D |--x---------------x--------0-------5---------------------------------------|
A |--x---------------x--------0-------5---------------------------------------|
F#|--6--(X 7)--------8--(X 3)-0-------5--(X 12)-------------------------------| X 4
D |--7---------------9--------0-------5---------------------------------------|
A |--x---------------x--------0-------5---------------------------------------|
D |--7---------------9--------0-------5---------------------------------------|
  

************************************

| x   Dead note

************************************
Suggest correction
Creating personal tab
Creating personal tab
You can edit any tab online and save it as your Personal.

You can edit, replace or remove any tab part or add personal notes – all changes will be seen only by you.

Personal tabs can be accessed anytime from any device, even offline.
Learn more »
Give kudos to tab author, rate the tab!
1 2 3 4 5
comments
print report bad tab
guest
You may want to rate the tab now too:
select rating
Wanna post a correction for this tab? Suggest correction