Oops, an error
Loading. Please wait.

Slush Puppy Love Bass

193 views 9 this week
no commentswrite comment
1 2 3 4 5
3 more votes to show rating
add to favorites
launch autoscroll
font size
0
reset
guitar tuner
×
Best way to learn
"Slush Puppy Love"
Autoscroll
slow
fast
+/-
esc
set tempo
stop
Author
Difficulty
About this tab version
No one has EVER tabbed this song ANYWHERE, but here it is at long last. Enjoy. Was this info helpful? Yes No
Use dirtiest tone you can

[Intro]
G|--------------------------------------------------|
D|--------------------------4--4--4--4--4--4--4--4--|(x4)
A|--4--4--4--4--4--4--4--4--------------------------|
E|--------------------------------------------------|

[Verse 1]
G|------------------------------------------------------------------------|
D|-4--4p1h4--4--4p1h4--4--4p1h4--4--4p1h4--4p1h4--------------------------|
A|------------------------------------------------4--4--4--4--4--4--4--4--|(x2)
E|------------------------------------------------------------------------|

G|---------------------------------------------------|
D|-------------------------4--4h1p4--4--4p1h4--4p1h4-|
A|---------------------------------------------------|(x4)
E|-4--4--4--4--7--7--7--7----------------------------|

[Chorus]
G|---------------------------------------------------|
D|--------------------------4--4--4--4--4--4--4--4---|
A|--4--4--4--4--4--4--4--4---------------------------|(x4)
E|---------------------------------------------------|

[Verse 2]
G|------------------------------------------------------------------------|
D|-4--4p1h4--4--4p1h4--4--4p1h4--4--4p1h4--4p1h4--------------------------|
A|------------------------------------------------4--4--4--4--4--4--4--4--|(x2)
E|------------------------------------------------------------------------|

G|---------------------------------------------------|
D|-------------------------4--4p1h4--4--4p1h4--4p1h4-|
A|---------------------------------------------------|(x4)
E|-4--4--4--4--7--7--7--7----------------------------|

[Outro]
G|---------------------------------------------------|
D|--------------------------4--4--4--4--4--4--4--4---|
A|--4--4--4--4--4--4--4--4---------------------------|(x3)
E|---------------------------------------------------|

G|---------------------------------------------------|
D|--------------------------4--4--4--4--4--1--4------|
A|--4--4--4--4--4--4--4--4---------------------------|
E|---------------------------------------------------|


| /  slide up
| \  slide down
| h  hammer-on
| p  pull-off
| ~  vibrato
| +  harmonic
| x  Mute note
Suggest correction
Give kudos to tab author, rate the tab!
1 2 3 4 5
comments
print report bad tab
guest
You may want to rate the tab now too:
select rating
Wanna post a correction for this tab? Suggest correction