Oops, an error
Loading. Please wait.

Perdido Bass

34 views 3 this week
no commentswrite comment
1 2 3 4 5
3 more votes to show rating
add to favorites
launch autoscroll
font size
0
reset
guitar tuner
×
Best way to learn
"Perdido"
Autoscroll
slow
fast
+/-
esc
set tempo
stop
bueno pues en el bajo es asi


G-5-5-5-5-7-7-7-7-9-9-9-9-5-5-5-5-|
D--5-5-5-5-5-5-5-5-7-7-7-7-3-3-3-3|
A---------------------------------|
E---------------------------------|

G-5-5-5-5-7-7-7-7-9-9-9-9--5-5-5-5|
D--5-5-5-5-5-5-5-5-7-7-7-7-3-3-3-3|
A---------------------------------|
E---------------------------------|

este se toca cuando empiesa la guitarra electrica

G-5-----|
D--5-7-3| x4
A-------|
E-------|

cuando empiesa a cantar ba asi

G----------------------|
D----------------------|
A-3-3-3----------------|
E------3-3--3-4-4-4-1-1|

para cualkier duda mi correo xsney_10@
Suggest correction
Give kudos to tab author, rate the tab!
1 2 3 4 5
comments
print report bad tab
guest
You may want to rate the tab now too:
select rating
Wanna post a correction for this tab? Suggest correction