Oops, an error
Loading. Please wait.

I Wrote This Song Tab

version 1
version 1

Whole song

6,916 views 1 this week
3 commentsread comments
1 2 3 4 5
accurate
x 2
add to favorites
launch autoscroll
font size
0
reset
how to read this tab
guitar tuner
Tab Pro tools
  • play this tab
  • loop segment
  • change instrument
  • show fretboard
  • metronome
Autoscroll
slow
fast
+/-
esc
set tempo
stop
Contributor
Difficulty
Tuning: C tuning (DCGFAD)
**CAPPO 5TH FRET**


Intro/Verse x8 
D|-------------------------------------|  
A|-3-------3---------3-----------------|
F|---------0---------0-----------------|
G|-2-------0---------------------------|
C|-2-----------------3-----------------|
D|---------3---------------------------|
  When I first started writing.......

Pre Chorus x4 
D|-------------------------------------|
A|-3-------3---------3-----------------|
F|-0-----------------0-----------------|
G|-0-------2---------------------------|
C|---------2---------3-----------------|
D|-3-----------------------------------|
  That I can't sleep........

Chorus x4
D|-------------------------------------|  
A|-3-------3---------3-----------------|
F|---------0---------0-----------------|
G|-2-------0---------------------------|
C|-2-----------------3-----------------|
D|---------3---------------------------|
  I wrote this song about you.....

Bridge x2                                
D|--------------------------------------|
A|-3-----3------3-----3-----------------|
F|-------0------0-----0-----------------|
G|-2------------0-----0-----------------|
C|-2-----3------------------------------|
D|--------------3-----2-----------------|
  And you're dying to know.....

ORDER
*intro/Verse
*Pre-Chorus
*Chorus
*Verse
*Pre-Chorus
*Chorus
*Bridge
*Chorus


                  **I WROTE THIS SONG LYRICS**

When I first started writing this I swear my intentions were well
and I'd start with maybe a memory or two
but then I saw you for the first time in a while
and awkward thoughts brought awkward smiles
and I left your room for the very last time and I know
that I can't sleep
with all of these things they're running through my head
so I stayed up and I
I wrote this song about you
isn't that cliche' of me to do
but it's nothing for you
the band just needed something more to play
so don't blush or hooray at the possible sound of your name
no I wouldn't go that far
no
now I
I've watched these years disperse and still this verse lacks words
and I'm losing all but a memory or two
cause now I see you and I can't hold back a smile
your fashion's long gone out of style
and there's nothing left to impress me anymore
cause I know
that I can't see
that same girl that I had known so long ago
so I gave up and I
chorus
no I wouldn't go that faaar
and you're dying to know
if a thank you will show up on my back sleeve
but I don't think I'll tell
of who crafted this hell and fixed it on me to the world
I wrote this song
I wrote it about you
I wrote this song all about you
yeah the band just needed one more song to play
yeah the band just needed one more song to play
yeah
chorus
no I wouldn't go that far
no I wouldn't go that far
no I wouldn't go



    ***************************P.S************************************
I WOULD JUST LIKE TO SAY I WAS THE FIRST ONE TO FIGURE THIS OUT AND TAB IT
:) WUUU
comments
We did not receive enough feedback on this tab! Please rate:
print report bad tab
1 2 3 4 5
3 comments total.
0 reply
iuhoosier201 wrote on August 23 2007, 07:02 pm

im not really seeing the point of tunning it to C since you could just put the capo on the 3rd fret instead of the 5th

0 reply
fridayinjanuary wrote on August 24 2007, 05:12 pm

what tuning for 3rd fret capo?

0 reply
iuhoosier201 wrote on August 26 2007, 07:33 pm

regular tunning, just put capo on 3rd and play as it is

I want to post or [tab]
guest
You may want to rate the tab now too:
select rating
Please do not post tabs as comments. Select "correction" instead!